  0
SECTION
  2
HEADER
  9
$ACADVER
  1
AC1027
  9
$ACADMAINTVER
 70
    55
  9
$DWGCODEPAGE
  3
ANSI_1252
  9
$LASTSAVEDBY
  1
Otecnica02
  9
$REQUIREDVERSIONS
160
                 0
  9
$INSBASE
 10
0.0
 20
0.0
 30
0.0
  9
$EXTMIN
 10
1.705603939788389
 20
7.214527007293961
 30
0.0
  9
$EXTMAX
 10
31.74067622888837
 20
30.58267680569396
 30
0.0
  9
$LIMMIN
 10
0.0
 20
0.0
  9
$LIMMAX
 10
11.0
 20
8.5
  9
$ORTHOMODE
 70
     1
  9
$REGENMODE
 70
     1
  9
$FILLMODE
 70
     1
  9
$QTEXTMODE
 70
     0
  9
$MIRRTEXT
 70
     1
  9
$LTSCALE
 40
1.0
  9
$ATTMODE
 70
     1
  9
$TEXTSIZE
 40
0.1377952756
  9
$TRACEWID
 40
0.05
  9
$TEXTSTYLE
  7
Standard
  9
$CLAYER
  8
0
  9
$CELTYPE
  6
ByLayer
  9
$CECOLOR
 62
   256
  9
$CELTSCALE
 40
1.0
  9
$DISPSILH
 70
     0
  9
$DIMSCALE
 40
1.0
  9
$DIMASZ
 40
0.13
  9
$DIMEXO
 40
0.0393700787
  9
$DIMDLI
 40
0.38
  9
$DIMRND
 40
0.0
  9
$DIMDLE
 40
0.0
  9
$DIMEXE
 40
0.0393700787
  9
$DIMTP
 40
0.0
  9
$DIMTM
 40
0.0
  9
$DIMTXT
 40
0.1377952756
  9
$DIMCEN
 40
0.09
  9
$DIMTSZ
 40
0.0
  9
$DIMTOL
 70
     0
  9
$DIMLIM
 70
     0
  9
$DIMTIH
 70
     1
  9
$DIMTOH
 70
     1
  9
$DIMSE1
 70
     0
  9
$DIMSE2
 70
     0
  9
$DIMTAD
 70
     1
  9
$DIMZIN
 70
     0
  9
$DIMBLK
  1

  9
$DIMASO
 70
     1
  9
$DIMSHO
 70
     1
  9
$DIMPOST
  1

  9
$DIMAPOST
  1

  9
$DIMALT
 70
     0
  9
$DIMALTD
 70
     2
  9
$DIMALTF
 40
25.4
  9
$DIMLFAC
 40
100.0
  9
$DIMTOFL
 70
     0
  9
$DIMTVP
 40
0.0
  9
$DIMTIX
 70
     0
  9
$DIMSOXD
 70
     0
  9
$DIMSAH
 70
     0
  9
$DIMBLK1
  1

  9
$DIMBLK2
  1

  9
$DIMSTYLE
  2
Standard
  9
$DIMCLRD
 70
     0
  9
$DIMCLRE
 70
     0
  9
$DIMCLRT
 70
     0
  9
$DIMTFAC
 40
1.0
  9
$DIMGAP
 40
0.06
  9
$DIMJUST
 70
     0
  9
$DIMSD1
 70
     0
  9
$DIMSD2
 70
     0
  9
$DIMTOLJ
 70
     1
  9
$DIMTZIN
 70
     0
  9
$DIMALTZ
 70
     0
  9
$DIMALTTZ
 70
     0
  9
$DIMUPT
 70
     0
  9
$DIMDEC
 70
     2
  9
$DIMTDEC
 70
     2
  9
$DIMALTU
 70
     2
  9
$DIMALTTD
 70
     2
  9
$DIMTXSTY
  7
Standard
  9
$DIMAUNIT
 70
     0
  9
$DIMADEC
 70
     2
  9
$DIMALTRND
 40
0.0
  9
$DIMAZIN
 70
     0
  9
$DIMDSEP
 70
    46
  9
$DIMATFIT
 70
     3
  9
$DIMFRAC
 70
     0
  9
$DIMLDRBLK
  1

  9
$DIMLUNIT
 70
     2
  9
$DIMLWD
 70
    -2
  9
$DIMLWE
 70
    -2
  9
$DIMTMOVE
 70
     0
  9
$DIMFXL
 40
1.0
  9
$DIMFXLON
 70
     0
  9
$DIMJOGANG
 40
0.7853981633974483
  9
$DIMTFILL
 70
     0
  9
$DIMTFILLCLR
 70
     0
  9
$DIMARCSYM
 70
     0
  9
$DIMLTYPE
  6

  9
$DIMLTEX1
  6

  9
$DIMLTEX2
  6

  9
$DIMTXTDIRECTION
 70
     0
  9
$LUNITS
 70
     2
  9
$LUPREC
 70
     2
  9
$SKETCHINC
 40
0.1
  9
$FILLETRAD
 40
0.5
  9
$AUNITS
 70
     0
  9
$AUPREC
 70
     2
  9
$MENU
  1
.
  9
$ELEVATION
 40
0.0
  9
$PELEVATION
 40
0.0
  9
$THICKNESS
 40
0.0
  9
$LIMCHECK
 70
     0
  9
$CHAMFERA
 40
0.0
  9
$CHAMFERB
 40
0.0
  9
$CHAMFERC
 40
0.0
  9
$CHAMFERD
 40
0.0
  9
$SKPOLY
 70
     0
  9
$TDCREATE
 40
2457666.466808970
  9
$TDUCREATE
 40
2457666.383475637
  9
$TDUPDATE
 40
2457667.466226794
  9
$TDUUPDATE
 40
2457667.382893461
  9
$TDINDWG
 40
0.0171497222
  9
$TDUSRTIMER
 40
0.0171496181
  9
$USRTIMER
 70
     1
  9
$ANGBASE
 50
0.0
  9
$ANGDIR
 70
     0
  9
$PDMODE
 70
     0
  9
$PDSIZE
 40
-1.0
  9
$PLINEWID
 40
0.0
  9
$SPLFRAME
 70
     0
  9
$SPLINETYPE
 70
     6
  9
$SPLINESEGS
 70
     8
  9
$HANDSEED
  5
657
  9
$SURFTAB1
 70
     6
  9
$SURFTAB2
 70
     6
  9
$SURFTYPE
 70
     6
  9
$SURFU
 70
     6
  9
$SURFV
 70
     6
  9
$UCSBASE
  2

  9
$UCSNAME
  2

  9
$UCSORG
 10
0.0
 20
0.0
 30
0.0
  9
$UCSXDIR
 10
1.0
 20
0.0
 30
0.0
  9
$UCSYDIR
 10
0.0
 20
1.0
 30
0.0
  9
$UCSORTHOREF
  2

  9
$UCSORTHOVIEW
 70
     0
  9
$UCSORGTOP
 10
0.0
 20
0.0
 30
0.0
  9
$UCSORGBOTTOM
 10
0.0
 20
0.0
 30
0.0
  9
$UCSORGLEFT
 10
0.0
 20
0.0
 30
0.0
  9
$UCSORGRIGHT
 10
0.0
 20
0.0
 30
0.0
  9
$UCSORGFRONT
 10
0.0
 20
0.0
 30
0.0
  9
$UCSORGBACK
 10
0.0
 20
0.0
 30
0.0
  9
$PUCSBASE
  2

  9
$PUCSNAME
  2

  9
$PUCSORG
 10
0.0
 20
0.0
 30
0.0
  9
$PUCSXDIR
 10
1.0
 20
0.0
 30
0.0
  9
$PUCSYDIR
 10
0.0
 20
1.0
 30
0.0
  9
$PUCSORTHOREF
  2

  9
$PUCSORTHOVIEW
 70
     0
  9
$PUCSORGTOP
 10
0.0
 20
0.0
 30
0.0
  9
$PUCSORGBOTTOM
 10
0.0
 20
0.0
 30
0.0
  9
$PUCSORGLEFT
 10
0.0
 20
0.0
 30
0.0
  9
$PUCSORGRIGHT
 10
0.0
 20
0.0
 30
0.0
  9
$PUCSORGFRONT
 10
0.0
 20
0.0
 30
0.0
  9
$PUCSORGBACK
 10
0.0
 20
0.0
 30
0.0
  9
$USERI1
 70
     0
  9
$USERI2
 70
     0
  9
$USERI3
 70
     0
  9
$USERI4
 70
     0
  9
$USERI5
 70
     0
  9
$USERR1
 40
0.0
  9
$USERR2
 40
0.0
  9
$USERR3
 40
0.0
  9
$USERR4
 40
0.0
  9
$USERR5
 40
0.0
  9
$WORLDVIEW
 70
     1
  9
$SHADEDGE
 70
     3
  9
$SHADEDIF
 70
    70
  9
$TILEMODE
 70
     1
  9
$MAXACTVP
 70
    64
  9
$PINSBASE
 10
0.0
 20
0.0
 30
0.0
  9
$PLIMCHECK
 70
     0
  9
$PEXTMIN
 10
1.000000000000000E+20
 20
1.000000000000000E+20
 30
1.000000000000000E+20
  9
$PEXTMAX
 10
-1.000000000000000E+20
 20
-1.000000000000000E+20
 30
-1.000000000000000E+20
  9
$PLIMMIN
 10
0.0
 20
0.0
  9
$PLIMMAX
 10
12.0
 20
9.0
  9
$UNITMODE
 70
     0
  9
$VISRETAIN
 70
     1
  9
$PLINEGEN
 70
     0
  9
$PSLTSCALE
 70
     1
  9
$TREEDEPTH
 70
  3020
  9
$CMLSTYLE
  2
Standard
  9
$CMLJUST
 70
     0
  9
$CMLSCALE
 40
1.0
  9
$PROXYGRAPHICS
 70
     1
  9
$MEASUREMENT
 70
     0
  9
$CELWEIGHT
370
    -1
  9
$ENDCAPS
280
     0
  9
$JOINSTYLE
280
     0
  9
$LWDISPLAY
290
     1
  9
$INSUNITS
 70
     1
  9
$HYPERLINKBASE
  1

  9
$STYLESHEET
  1

  9
$XEDIT
290
     1
  9
$CEPSNTYPE
380
     0
  9
$PSTYLEMODE
290
     1
  9
$FINGERPRINTGUID
  2
{4F1FFED2-2A26-4E42-A0B0-020A5DB4193F}
  9
$VERSIONGUID
  2
{A9824462-CF65-4C43-9B5F-6C35A0B6AD2B}
  9
$EXTNAMES
290
     1
  9
$PSVPSCALE
 40
0.0
  9
$OLESTARTUP
290
     0
  9
$SORTENTS
280
   127
  9
$INDEXCTL
280
     0
  9
$HIDETEXT
280
     0
  9
$XCLIPFRAME
280
     2
  9
$HALOGAP
280
     0
  9
$OBSCOLOR
 70
   257
  9
$OBSLTYPE
280
     0
  9
$INTERSECTIONDISPLAY
280
     0
  9
$INTERSECTIONCOLOR
 70
   257
  9
$DIMASSOC
280
     1
  9
$PROJECTNAME
  1

  9
$CAMERADISPLAY
290
     0
  9
$LENSLENGTH
 40
50.0
  9
$CAMERAHEIGHT
 40
0.0
  9
$STEPSPERSEC
 40
2.0
  9
$STEPSIZE
 40
6.0
  9
$3DDWFPREC
 40
2.0
  9
$PSOLWIDTH
 40
0.25
  9
$PSOLHEIGHT
 40
4.0
  9
$LOFTANG1
 40
1.570796326794896
  9
$LOFTANG2
 40
1.570796326794896
  9
$LOFTMAG1
 40
0.0
  9
$LOFTMAG2
 40
0.0
  9
$LOFTPARAM
 70
     7
  9
$LOFTNORMALS
280
     1
  9
$LATITUDE
 40
37.795
  9
$LONGITUDE
 40
-122.394
  9
$NORTHDIRECTION
 40
0.0
  9
$TIMEZONE
 70
 -8000
  9
$LIGHTGLYPHDISPLAY
280
     1
  9
$TILEMODELIGHTSYNCH
280
     1
  9
$CMATERIAL
347
168
  9
$SOLIDHIST
280
     1
  9
$SHOWHIST
280
     1
  9
$DWFFRAME
280
     2
  9
$DGNFRAME
280
     0
  9
$REALWORLDSCALE
290
     1
  9
$INTERFERECOLOR
 62
     1
  9
$INTERFEREOBJVS
345
18A
  9
$INTERFEREVPVS
346
187
  9
$CSHADOW
280
     0
  9
$SHADOWPLANELOCATION
 40
0.0
  0
ENDSEC
  0
SECTION
  2
CLASSES
  0
CLASS
  1
ACDBDICTIONARYWDFLT
  2
AcDbDictionaryWithDefault
  3
ObjectDBX Classes
 90
        0
 91
        1
280
     0
281
     0
  0
CLASS
  1
VISUALSTYLE
  2
AcDbVisualStyle
  3
ObjectDBX Classes
 90
     4095
 91
       26
280
     0
281
     0
  0
CLASS
  1
MATERIAL
  2
AcDbMaterial
  3
ObjectDBX Classes
 90
     1153
 91
        3
280
     0
281
     0
  0
CLASS
  1
SCALE
  2
AcDbScale
  3
ObjectDBX Classes
 90
     1153
 91
       33
280
     0
281
     0
  0
CLASS
  1
TABLESTYLE
  2
AcDbTableStyle
  3
ObjectDBX Classes
 90
     4095
 91
        1
280
     0
281
     0
  0
CLASS
  1
MLEADERSTYLE
  2
AcDbMLeaderStyle
  3
ACDB_MLEADERSTYLE_CLASS
 90
     4095
 91
        1
280
     0
281
     0
  0
CLASS
  1
SUN
  2
AcDbSun
  3
SCENEOE
 90
     1153
 91
        0
280
     0
281
     0
  0
CLASS
  1
DICTIONARYVAR
  2
AcDbDictionaryVar
  3
ObjectDBX Classes
 90
        0
 91
        9
280
     0
281
     0
  0
CLASS
  1
CELLSTYLEMAP
  2
AcDbCellStyleMap
  3
ObjectDBX Classes
 90
     1152
 91
        2
280
     0
281
     0
  0
CLASS
  1
SORTENTSTABLE
  2
AcDbSortentsTable
  3
ObjectDBX Classes
 90
        0
 91
        1
280
     0
281
     0
  0
CLASS
  1
ACDBSECTIONVIEWSTYLE
  2
AcDbSectionViewStyle
  3
ObjectDBX Classes
 90
     1025
 91
        1
280
     0
281
     0
  0
CLASS
  1
ACDBDETAILVIEWSTYLE
  2
AcDbDetailViewStyle
  3
ObjectDBX Classes
 90
     1025
 91
        1
280
     0
281
     0
  0
ENDSEC
  0
SECTION
  2
TABLES
  0
TABLE
  2
VPORT
  5
8
330
0
100
AcDbSymbolTable
 70
     1
  0
VPORT
  5
29
330
8
100
AcDbSymbolTableRecord
100
AcDbViewportTableRecord
  2
*Active
 70
     0
 10
0.0
 20
0.0
 11
1.0
 21
1.0
 12
8.302303703786634
 22
19.06326040012083
 13
0.0
 23
0.0
 14
0.5
 24
0.5
 15
0.5
 25
0.5
 16
0.0
 26
0.0
 36
1.0
 17
0.0
 27
0.0
 37
0.0
 40
5.289606771089769
 41
2.284825870646766
 42
50.0
 43
0.0
 44
0.0
 50
0.0
 51
0.0
 71
     0
 72
  2000
 73
     1
 74
     3
 75
     0
 76
     0
 77
     0
 78
     0
281
     0
 65
     1
110
0.0
120
0.0
130
0.0
111
1.0
121
0.0
131
0.0
112
0.0
122
1.0
132
0.0
 79
     0
146
0.0
348
186
 60
     3
 61
     5
292
     1
282
     1
141
0.0
142
0.0
 63
   250
421
  3355443
1001
ACAD_NAV_VCDISPLAY
1070
     3
  0
ENDTAB
  0
TABLE
  2
LTYPE
  5
5
330
0
100
AcDbSymbolTable
 70
     7
  0
LTYPE
  5
14
330
5
100
AcDbSymbolTableRecord
100
AcDbLinetypeTableRecord
  2
ByBlock
 70
     0
  3

 72
    65
 73
     0
 40
0.0
  0
LTYPE
  5
15
330
5
100
AcDbSymbolTableRecord
100
AcDbLinetypeTableRecord
  2
ByLayer
 70
     0
  3

 72
    65
 73
     0
 40
0.0
  0
LTYPE
  5
16
330
5
100
AcDbSymbolTableRecord
100
AcDbLinetypeTableRecord
  2
Continuous
 70
     0
  3
Solid line
 72
    65
 73
     0
 40
0.0
  0
LTYPE
  5
6E
330
5
100
AcDbSymbolTableRecord
100
AcDbLinetypeTableRecord
  2
HIDDEN
 70
     0
  3
Hidden __ __ __ __ __ __ __ __ __ __ __ __ __ __
 72
    65
 73
     2
 40
0.075
 49
0.05
 74
     0
 49
-0.025
 74
     0
  0
LTYPE
  5
6F
330
5
100
AcDbSymbolTableRecord
100
AcDbLinetypeTableRecord
  2
PHANTOM
 70
     0
  3
Phantom ______  __  __  ______  __  __  ______
 72
    65
 73
     6
 40
0.5
 49
0.25
 74
     0
 49
-0.05
 74
     0
 49
0.05
 74
     0
 49
-0.05
 74
     0
 49
0.05
 74
     0
 49
-0.05
 74
     0
  0
LTYPE
  5
70
330
5
100
AcDbSymbolTableRecord
100
AcDbLinetypeTableRecord
  2
CENTER
 70
     0
  3
Center ____ _ ____ _ ____ _ ____ _ ____ _ ____
 72
    65
 73
     4
 40
0.4
 49
0.25
 74
     0
 49
-0.05
 74
     0
 49
0.05
 74
     0
 49
-0.05
 74
     0
  0
LTYPE
  5
71
330
5
100
AcDbSymbolTableRecord
100
AcDbLinetypeTableRecord
  2
CENTERX2
 70
     0
  3
Center (2x) ________  __  ________  __  _____
 72
    65
 73
     4
 40
0.8
 49
0.5
 74
     0
 49
-0.1
 74
     0
 49
0.1
 74
     0
 49
-0.1
 74
     0
  0
LTYPE
  5
72
330
5
100
AcDbSymbolTableRecord
100
AcDbLinetypeTableRecord
  2
DOT2
 70
     0
  3
Dot (.5x) ........................................
 72
    65
 73
     2
 40
0.025
 49
0.0
 74
     0
 49
-0.025
 74
     0
  0
ENDTAB
  0
TABLE
  2
LAYER
  5
2
102
{ACAD_XDICTIONARY
360
457
102
}
330
0
100
AcDbSymbolTable
 70
     3
  0
LAYER
  5
10
102
{ACAD_XDICTIONARY
360
44E
102
}
330
2
100
AcDbSymbolTableRecord
100
AcDbLayerTableRecord
  2
0
 70
     0
 62
     7
  6
Continuous
370
    -3
390
F
347
178
348
0
  0
LAYER
  5
73
102
{ACAD_XDICTIONARY
360
450
102
}
330
2
100
AcDbSymbolTableRecord
100
AcDbLayerTableRecord
  2
FORMAT
 70
     0
 62
     7
  6
Continuous
370
    -3
390
F
347
178
348
0
  0
LAYER
  5
317
102
{ACAD_XDICTIONARY
360
452
102
}
330
2
100
AcDbSymbolTableRecord
100
AcDbLayerTableRecord
  2
Capa 1
 70
     0
 62
     7
  6
Continuous
370
    -3
390
F
347
178
348
0
  0
ENDTAB
  0
TABLE
  2
STYLE
  5
3
330
0
100
AcDbSymbolTable
 70
     2
  0
STYLE
  5
11
330
3
100
AcDbSymbolTableRecord
100
AcDbTextStyleTableRecord
  2
Standard
 70
     0
 40
0.0
 41
1.0
 50
0.0
 71
     0
 42
0.1377952756
  3
txt
  4

  0
STYLE
  5
46E
330
3
100
AcDbSymbolTableRecord
100
AcDbTextStyleTableRecord
  2
SLDTEXTSTYLE0
 70
     0
 40
0.0
 41
0.75
 50
0.0
 71
     0
 42
3.5
  3
TXT
  4

  0
ENDTAB
  0
TABLE
  2
VIEW
  5
6
330
0
100
AcDbSymbolTable
 70
     0
  0
ENDTAB
  0
TABLE
  2
UCS
  5
7
330
0
100
AcDbSymbolTable
 70
     0
  0
ENDTAB
  0
TABLE
  2
APPID
  5
9
330
0
100
AcDbSymbolTable
 70
     3
  0
APPID
  5
12
330
9
100
AcDbSymbolTableRecord
100
AcDbRegAppTableRecord
  2
ACAD
 70
     0
  0
APPID
  5
64C
330
9
100
AcDbSymbolTableRecord
100
AcDbRegAppTableRecord
  2
ACAD_EXEMPT_FROM_CAD_STANDARDS
 70
     0
  0
APPID
  5
650
330
9
100
AcDbSymbolTableRecord
100
AcDbRegAppTableRecord
  2
ACAD_NAV_VCDISPLAY
 70
     0
  0
ENDTAB
  0
TABLE
  2
DIMSTYLE
  5
A
330
0
100
AcDbSymbolTable
 70
     2
100
AcDbDimStyleTable
 71
     0
  0
DIMSTYLE
105
27
330
A
100
AcDbSymbolTableRecord
100
AcDbDimStyleTableRecord
  2
Standard
 70
     0
340
11
  0
DIMSTYLE
105
46F
330
A
100
AcDbSymbolTableRecord
100
AcDbDimStyleTableRecord
  2
ISO-25
 70
     0
 41
2.5
 42
0.625
 43
3.75
 44
1.25
 73
     0
 74
     0
 77
     1
 78
     8
140
2.5
141
2.5
143
0.0393700787
147
0.625
171
     3
172
     1
271
     2
272
     2
274
     3
278
    44
283
     0
284
     8
340
11
  0
ENDTAB
  0
TABLE
  2
BLOCK_RECORD
  5
1
330
0
100
AcDbSymbolTable
 70
    24
  0
BLOCK_RECORD
  5
1F
102
{ACAD_XDICTIONARY
360
3F0
102
}
330
1
100
AcDbSymbolTableRecord
100
AcDbBlockTableRecord
  2
*Model_Space
340
22
 70
     0
280
     1
281
     0
  0
BLOCK_RECORD
  5
1B
330
1
100
AcDbSymbolTableRecord
100
AcDbBlockTableRecord
  2
*Paper_Space
340
1E
 70
     0
280
     1
281
     0
  0
BLOCK_RECORD
  5
23
330
1
100
AcDbSymbolTableRecord
100
AcDbBlockTableRecord
  2
*Paper_Space0
340
26
 70
     0
280
     1
281
     0
  0
BLOCK_RECORD
  5
19B
102
{ACAD_XDICTIONARY
360
43F
102
}
330
1
100
AcDbSymbolTableRecord
100
AcDbBlockTableRecord
  2
block 2
340
0
102
{BLKREFS
331
341
331
442
102
}
 70
     0
280
     1
281
     0
  0
BLOCK_RECORD
  5
20E
330
1
100
AcDbSymbolTableRecord
100
AcDbBlockTableRecord
  2
block 3
340
0
102
{BLKREFS
331
443
331
19D
102
}
 70
     0
280
     1
281
     0
  0
BLOCK_RECORD
  5
212
330
1
100
AcDbSymbolTableRecord
100
AcDbBlockTableRecord
  2
block 4
340
0
102
{BLKREFS
331
1C4
102
}
 70
     0
280
     1
281
     0
  0
BLOCK_RECORD
  5
216
330
1
100
AcDbSymbolTableRecord
100
AcDbBlockTableRecord
  2
block 5
340
0
102
{BLKREFS
331
1CD
102
}
 70
     0
280
     1
281
     0
  0
BLOCK_RECORD
  5
21B
330
1
100
AcDbSymbolTableRecord
100
AcDbBlockTableRecord
  2
block 6
340
0
102
{BLKREFS
331
218
102
}
 70
     0
280
     1
281
     0
  0
BLOCK_RECORD
  5
267
330
1
100
AcDbSymbolTableRecord
100
AcDbBlockTableRecord
  2
block 7
340
0
102
{BLKREFS
331
219
102
}
 70
     0
280
     1
281
     0
  0
BLOCK_RECORD
  5
26B
330
1
100
AcDbSymbolTableRecord
100
AcDbBlockTableRecord
  2
block 8
340
0
102
{BLKREFS
331
1CE
102
}
 70
     0
280
     1
281
     0
  0
BLOCK_RECORD
  5
289
330
1
100
AcDbSymbolTableRecord
100
AcDbBlockTableRecord
  2
block 9
340
0
102
{BLKREFS
331
1CF
102
}
 70
     0
280
     1
281
     0
  0
BLOCK_RECORD
  5
29B
330
1
100
AcDbSymbolTableRecord
100
AcDbBlockTableRecord
  2
block 10
340
0
102
{BLKREFS
331
1D0
102
}
 70
     0
280
     1
281
     0
  0
BLOCK_RECORD
  5
2A2
330
1
100
AcDbSymbolTableRecord
100
AcDbBlockTableRecord
  2
block 11
340
0
102
{BLKREFS
331
1D1
102
}
 70
     0
280
     1
281
     0
  0
BLOCK_RECORD
  5
2A6
330
1
100
AcDbSymbolTableRecord
100
AcDbBlockTableRecord
  2
block 12
340
0
102
{BLKREFS
331
1D2
102
}
 70
     0
280
     1
281
     0
  0
BLOCK_RECORD
  5
2B1
330
1
100
AcDbSymbolTableRecord
100
AcDbBlockTableRecord
  2
block 13
340
0
102
{BLKREFS
331
1D3
102
}
 70
     0
280
     1
281
     0
  0
BLOCK_RECORD
  5
2BB
330
1
100
AcDbSymbolTableRecord
100
AcDbBlockTableRecord
  2
block 14
340
0
102
{BLKREFS
331
1D4
102
}
 70
     0
280
     1
281
     0
  0
BLOCK_RECORD
  5
2C5
330
1
100
AcDbSymbolTableRecord
100
AcDbBlockTableRecord
  2
block 15
340
0
102
{BLKREFS
331
1D5
102
}
 70
     0
280
     1
281
     0
  0
BLOCK_RECORD
  5
2D0
330
1
100
AcDbSymbolTableRecord
100
AcDbBlockTableRecord
  2
block 16
340
0
102
{BLKREFS
331
1D6
102
}
 70
     0
280
     1
281
     0
  0
BLOCK_RECORD
  5
2DA
330
1
100
AcDbSymbolTableRecord
100
AcDbBlockTableRecord
  2
block 17
340
0
102
{BLKREFS
331
1D7
102
}
 70
     0
280
     1
281
     0
  0
BLOCK_RECORD
  5
2DE
330
1
100
AcDbSymbolTableRecord
100
AcDbBlockTableRecord
  2
block 18
340
0
102
{BLKREFS
331
207
102
}
 70
     0
280
     1
281
     0
  0
BLOCK_RECORD
  5
2E9
330
1
100
AcDbSymbolTableRecord
100
AcDbBlockTableRecord
  2
block 19
340
0
102
{BLKREFS
331
208
102
}
 70
     0
280
     1
281
     0
  0
BLOCK_RECORD
  5
2F4
330
1
100
AcDbSymbolTableRecord
100
AcDbBlockTableRecord
  2
block 20
340
0
102
{BLKREFS
331
209
102
}
 70
     0
280
     1
281
     0
  0
BLOCK_RECORD
  5
2FF
330
1
100
AcDbSymbolTableRecord
100
AcDbBlockTableRecord
  2
block 21
340
0
102
{BLKREFS
331
20A
102
}
 70
     0
280
     1
281
     0
  0
BLOCK_RECORD
  5
309
330
1
100
AcDbSymbolTableRecord
100
AcDbBlockTableRecord
  2
block 22
340
0
102
{BLKREFS
331
20B
102
}
 70
     0
280
     1
281
     0
  0
BLOCK_RECORD
  5
313
330
1
100
AcDbSymbolTableRecord
100
AcDbBlockTableRecord
  2
block 23
340
0
102
{BLKREFS
331
20C
102
}
 70
     0
280
     1
281
     0
  0
BLOCK_RECORD
  5
441
330
1
100
AcDbSymbolTableRecord
100
AcDbBlockTableRecord
  2
A$C58984D63
340
0
 70
     1
280
     1
281
     0
  0
ENDTAB
  0
ENDSEC
  0
SECTION
  2
BLOCKS
  0
BLOCK
  5
20
330
1F
100
AcDbEntity
  8
0
100
AcDbBlockBegin
  2
*Model_Space
 70
     0
 10
0.0
 20
0.0
 30
0.0
  3
*Model_Space
  1

  0
ENDBLK
  5
21
330
1F
100
AcDbEntity
  8
0
100
AcDbBlockEnd
  0
BLOCK
  5
1C
330
1B
100
AcDbEntity
 67
     1
  8
0
100
AcDbBlockBegin
  2
*Paper_Space
 70
     0
 10
0.0
 20
0.0
 30
0.0
  3
*Paper_Space
  1

  0
ENDBLK
  5
1D
330
1B
100
AcDbEntity
 67
     1
  8
0
100
AcDbBlockEnd
  0
BLOCK
  5
24
330
23
100
AcDbEntity
 67
     1
  8
0
100
AcDbBlockBegin
  2
*Paper_Space0
 70
     0
 10
0.0
 20
0.0
 30
0.0
  3
*Paper_Space0
  1

  0
ENDBLK
  5
25
330
23
100
AcDbEntity
 67
     1
  8
0
100
AcDbBlockEnd
  0
BLOCK
  5
19C
330
19B
100
AcDbEntity
  8
0
100
AcDbBlockBegin
  2
block 2
 70
     0
 10
0.0
 20
0.0
 30
0.0
  3
block 2
  1

  0
INSERT
  5
19D
330
19B
100
AcDbEntity
  8
Capa 1
100
AcDbBlockReference
  2
block 3
 10
0.0
 20
0.000000000003638
 30
0.0
  0
SPLINE
  5
19E
330
19B
100
AcDbEntity
  8
Capa 1
 62
   250
420
  1842203
370
    35
100
AcDbSpline
210
0.0
220
0.0
230
1.0
 70
     9
 71
     3
 72
    17
 73
    13
 74
     0
 42
0.000000001
 43
0.0000000001
 40
0.0
 40
0.0
 40
0.0
 40
0.0
 40
1.0
 40
1.0
 40
1.0
 40
2.0
 40
2.0
 40
2.0
 40
3.0
 40
3.0
 40
3.0
 40
4.0
 40
4.0
 40
4.0
 40
4.0
 10
352.6389403415287
 20
-849.4320446010096
 30
0.0
 10
346.7712537110501
 20
-849.4320446010096
 30
0.0
 10
342.0063421454015
 20
-854.1900659756866
 30
0.0
 10
342.0063421454015
 20
-860.0591306443567
 30
0.0
 10
342.0063421454015
 20
-865.9350855039992
 30
0.0
 10
346.7712537110501
 20
-870.6931068786799
 30
0.0
 10
352.6389403415287
 20
-870.6931068786799
 30
0.0
 10
358.5093830483938
 20
-870.6931068786799
 30
0.0
 10
363.2687824612658
 20
-865.9350855039992
 30
0.0
 10
363.2687824612658
 20
-860.0591306443567
 30
0.0
 10
363.2687824612658
 20
-854.1900659756866
 30
0.0
 10
358.5093830483938
 20
-849.4320446010096
 30
0.0
 10
352.6389403415287
 20
-849.4320446010096
 30
0.0
  0
SPLINE
  5
19F
330
19B
100
AcDbEntity
  8
Capa 1
 62
   250
420
  1842203
370
    35
100
AcDbSpline
210
0.0
220
0.0
230
1.0
 70
     9
 71
     3
 72
    17
 73
    13
 74
     0
 42
0.000000001
 43
0.0000000001
 40
0.0
 40
0.0
 40
0.0
 40
0.0
 40
1.0
 40
1.0
 40
1.0
 40
2.0
 40
2.0
 40
2.0
 40
3.0
 40
3.0
 40
3.0
 40
4.0
 40
4.0
 40
4.0
 40
4.0
 10
547.6554604750663
 20
-849.4320446010096
 30
0.0
 10
541.7853622777483
 20
-849.4320446010096
 30
0.0
 10
537.0259628648764
 20
-854.1900659756866
 30
0.0
 10
537.0259628648764
 20
-860.0591306443567
 30
0.0
 10
537.0259628648764
 20
-865.9350855039992
 30
0.0
 10
541.7853622777483
 20
-870.6931068786799
 30
0.0
 10
547.6554604750663
 20
-870.6931068786799
 30
0.0
 10
553.5259031819314
 20
-870.6931068786799
 30
0.0
 10
558.2880586711926
 20
-865.9350855039992
 30
0.0
 10
558.2880586711926
 20
-860.0591306443567
 30
0.0
 10
558.2880586711926
 20
-854.1900659756866
 30
0.0
 10
553.5259031819314
 20
-849.4320446010096
 30
0.0
 10
547.6554604750663
 20
-849.4320446010096
 30
0.0
  0
SPLINE
  5
1A0
330
19B
100
AcDbEntity
  8
Capa 1
 62
   250
420
  1842203
370
    35
100
AcDbSpline
210
0.0
220
0.0
230
1.0
 70
     9
 71
     3
 72
    17
 73
    13
 74
     0
 42
0.000000001
 43
0.0000000001
 40
0.0
 40
0.0
 40
0.0
 40
0.0
 40
1.0
 40
1.0
 40
1.0
 40
2.0
 40
2.0
 40
2.0
 40
3.0
 40
3.0
 40
3.0
 40
4.0
 40
4.0
 40
4.0
 40
4.0
 10
390.0340737957213
 20
-40.54619003977495
 30
0.0
 10
390.0340737957213
 20
-34.67471380426287
 30
0.0
 10
385.2722628160091
 20
-29.91600341048616
 30
0.0
 10
379.401820109143
 20
-29.91600341048616
 30
0.0
 10
373.5341334786653
 20
-29.91600341048616
 30
0.0
 10
368.772322498954
 20
-34.67471380426287
 30
0.0
 10
368.772322498954
 20
-40.54619003977495
 30
0.0
 10
368.772322498954
 20
-46.41921656825434
 30
0.0
 10
373.5341334786653
 20
-51.17792696203105
 30
0.0
 10
379.401820109143
 20
-51.17792696203105
 30
0.0
 10
385.2722628160091
 20
-51.17792696203105
 30
0.0
 10
390.0340737957213
 20
-46.41921656825434
 30
0.0
 10
390.0340737957213
 20
-40.54619003977495
 30
0.0
  0
SPLINE
  5
1A1
330
19B
100
AcDbEntity
  8
Capa 1
 62
   250
420
  1842203
370
    35
100
AcDbSpline
210
0.0
220
0.0
230
1.0
 70
     9
 71
     3
 72
    17
 73
    13
 74
     0
 42
0.000000001
 43
0.0000000001
 40
0.0
 40
0.0
 40
0.0
 40
0.0
 40
1.0
 40
1.0
 40
1.0
 40
2.0
 40
2.0
 40
2.0
 40
3.0
 40
3.0
 40
3.0
 40
4.0
 40
4.0
 40
4.0
 40
4.0
 10
87.21362573774603
 20
-433.8350177951832
 30
0.0
 10
77.43127710737827
 20
-433.8350177951832
 30
0.0
 10
69.4965331857511
 20
-441.7670056404238
 30
0.0
 10
69.4965331857511
 20
-451.5527993662763
 30
0.0
 10
69.4965331857511
 20
-461.3396266207746
 30
0.0
 10
77.43127710737827
 20
-469.2729925042075
 30
0.0
 10
87.21362573774603
 20
-469.2729925042075
 30
0.0
 10
96.99597436811293
 20
-469.2729925042075
 30
0.0
 10
104.9310627992881
 20
-461.3396266207746
 30
0.0
 10
104.9310627992881
 20
-451.5527993662763
 30
0.0
 10
104.9310627992881
 20
-441.7670056404238
 30
0.0
 10
96.99597436811293
 20
-433.8350177951832
 30
0.0
 10
87.21362573774603
 20
-433.8350177951832
 30
0.0
  0
SPLINE
  5
1A2
330
19B
100
AcDbEntity
  8
Capa 1
 62
   250
420
  1842203
370
    35
100
AcDbSpline
210
0.0
220
0.0
230
1.0
 70
     9
 71
     3
 72
    17
 73
    13
 74
     0
 42
0.000000001
 43
0.0000000001
 40
0.0
 40
0.0
 40
0.0
 40
0.0
 40
1.0
 40
1.0
 40
1.0
 40
2.0
 40
2.0
 40
2.0
 40
3.0
 40
3.0
 40
3.0
 40
4.0
 40
4.0
 40
4.0
 40
4.0
 10
87.21362573774603
 20
-472.9781926985922
 30
0.0
 10
75.40177135701743
 20
-472.9781926985922
 30
0.0
 10
65.79236652001053
 20
-463.3667208042933
 30
0.0
 10
65.79236652001053
 20
-451.5527993662763
 30
0.0
 10
65.79236652001053
 20
-439.7406004760012
 30
0.0
 10
75.40177135701743
 20
-430.1301621103448
 30
0.0
 10
87.21362573774603
 20
-430.1301621103448
 30
0.0
 10
99.02548011847375
 20
-430.1301621103448
 30
0.0
 10
108.6355739745777
 20
-439.7406004760012
 30
0.0
 10
108.6355739745777
 20
-451.5527993662763
 30
0.0
 10
108.6355739745777
 20
-463.3667208042933
 30
0.0
 10
99.02548011847375
 20
-472.9781926985922
 30
0.0
 10
87.21362573774603
 20
-472.9781926985922
 30
0.0
  0
SPLINE
  5
1A3
330
19B
100
AcDbEntity
  8
Capa 1
 62
   250
420
  1842203
370
    35
100
AcDbSpline
210
0.0
220
0.0
230
1.0
 70
     9
 71
     3
 72
    17
 73
    13
 74
     0
 42
0.000000001
 43
0.0000000001
 40
0.0
 40
0.0
 40
0.0
 40
0.0
 40
1.0
 40
1.0
 40
1.0
 40
2.0
 40
2.0
 40
2.0
 40
3.0
 40
3.0
 40
3.0
 40
4.0
 40
4.0
 40
4.0
 40
4.0
 10
87.21362573774603
 20
-432.2475177955821
 30
0.0
 10
76.56896970742036
 20
-432.2475177955821
 30
0.0
 10
67.90868867659901
 20
-440.9077988264033
 30
0.0
 10
67.90868867659901
 20
-451.5527993662763
 30
0.0
 10
67.90868867659901
 20
-462.1995224538912
 30
0.0
 10
76.56896970742036
 20
-470.8608370133588
 30
0.0
 10
87.21362573774603
 20
-470.8608370133588
 30
0.0
 10
97.85862627761893
 20
-470.8608370133588
 30
0.0
 10
106.5185627988921
 20
-462.1995224538912
 30
0.0
 10
106.5185627988921
 20
-451.5527993662763
 30
0.0
 10
106.5185627988921
 20
-440.9077988264033
 30
0.0
 10
97.85862627761893
 20
-432.2475177955821
 30
0.0
 10
87.21362573774603
 20
-432.2475177955821
 30
0.0
  0
SPLINE
  5
1A4
330
19B
100
AcDbEntity
  8
Capa 1
 62
   250
420
  1842203
370
    35
100
AcDbSpline
210
0.0
220
0.0
230
1.0
 70
    11
 71
     3
 72
    17
 73
    13
 74
     0
 42
0.000000001
 43
0.0000000001
 40
0.0
 40
0.0
 40
0.0
 40
0.0
 40
1.0
 40
1.0
 40
1.0
 40
2.0
 40
2.0
 40
2.0
 40
3.0
 40
3.0
 40
3.0
 40
4.0
 40
4.0
 40
4.0
 40
4.0
 10
814.1418644883049
 20
-472.9781926985922
 30
0.0
 10
802.3300101075772
 20
-472.9781926985922
 30
0.0
 10
792.7209497801185
 20
-463.3667208042933
 30
0.0
 10
792.7209497801185
 20
-451.5527993662763
 30
0.0
 10
792.7209497801185
 20
-439.7406004760012
 30
0.0
 10
802.3300101075772
 20
-430.1301621103448
 30
0.0
 10
814.1418644883049
 20
-430.1301621103448
 30
0.0
 10
825.9537188690329
 20
-430.1301621103448
 30
0.0
 10
835.5634682155887
 20
-439.7406004760012
 30
0.0
 10
835.5634682155887
 20
-451.5527993662763
 30
0.0
 10
835.5634682155887
 20
-463.3667208042933
 30
0.0
 10
825.9537188690329
 20
-472.9781926985922
 30
0.0
 10
814.1418644883049
 20
-472.9781926985922
 30
0.0
  0
SPLINE
  5
1A5
330
19B
100
AcDbEntity
  8
Capa 1
 62
   250
420
  1842203
370
    35
100
AcDbSpline
210
0.0
220
0.0
230
1.0
 70
     9
 71
     3
 72
    17
 73
    13
 74
     0
 42
0.000000001
 43
0.0000000001
 40
0.0
 40
0.0
 40
0.0
 40
0.0
 40
1.0
 40
1.0
 40
1.0
 40
2.0
 40
2.0
 40
2.0
 40
3.0
 40
3.0
 40
3.0
 40
4.0
 40
4.0
 40
4.0
 40
4.0
 10
814.1418644883049
 20
-432.2475177955821
 30
0.0
 10
803.4975529675293
 20
-432.2475177955821
 30
0.0
 10
794.837271936708
 20
-440.9077988264033
 30
0.0
 10
794.837271936708
 20
-451.5527993662763
 30
0.0
 10
794.837271936708
 20
-462.1995224538912
 30
0.0
 10
803.4975529675293
 20
-470.8608370133588
 30
0.0
 10
814.1418644883049
 20
-470.8608370133588
 30
0.0
 10
824.7865205186299
 20
-470.8608370133588
 30
0.0
 10
833.4468015494513
 20
-462.1995224538912
 30
0.0
 10
833.4468015494513
 20
-451.5527993662763
 30
0.0
 10
833.4468015494513
 20
-440.9077988264033
 30
0.0
 10
824.7865205186299
 20
-432.2475177955821
 30
0.0
 10
814.1418644883049
 20
-432.2475177955821
 30
0.0
  0
SPLINE
  5
1A6
330
19B
100
AcDbEntity
  8
Capa 1
 62
   250
420
  1842203
370
    35
100
AcDbSpline
210
0.0
220
0.0
230
1.0
 70
     9
 71
     3
 72
    17
 73
    13
 74
     0
 42
0.000000001
 43
0.0000000001
 40
0.0
 40
0.0
 40
0.0
 40
0.0
 40
1.0
 40
1.0
 40
1.0
 40
2.0
 40
2.0
 40
2.0
 40
3.0
 40
3.0
 40
3.0
 40
4.0
 40
4.0
 40
4.0
 40
4.0
 10
520.9204859808806
 20
-29.91600341048616
 30
0.0
 10
515.0527993504038
 20
-29.91600341048616
 30
0.0
 10
510.2906438611426
 20
-34.67471380426287
 30
0.0
 10
510.2906438611426
 20
-40.54619003977495
 30
0.0
 10
510.2906438611426
 20
-46.41921656825434
 30
0.0
 10
515.0527993504038
 20
-51.17792696203105
 30
0.0
 10
520.9204859808806
 20
-51.17792696203105
 30
0.0
 10
526.7881726113592
 20
-51.17792696203105
 30
0.0
 10
531.5506726101682
 20
-46.41921656825434
 30
0.0
 10
531.5506726101682
 20
-40.54619003977495
 30
0.0
 10
531.5506726101682
 20
-34.67471380426287
 30
0.0
 10
526.7881726113592
 20
-29.91600341048616
 30
0.0
 10
520.9204859808806
 20
-29.91600341048616
 30
0.0
  0
SPLINE
  5
1A7
330
19B
100
AcDbEntity
  8
Capa 1
 62
   250
420
  1842203
370
    35
100
AcDbSpline
210
0.0
220
0.0
230
1.0
 70
     9
 71
     3
 72
    17
 73
    13
 74
     0
 42
0.000000001
 43
0.0000000001
 40
0.0
 40
0.0
 40
0.0
 40
0.0
 40
1.0
 40
1.0
 40
1.0
 40
2.0
 40
2.0
 40
2.0
 40
3.0
 40
3.0
 40
3.0
 40
4.0
 40
4.0
 40
4.0
 40
4.0
 10
814.1470321315328
 20
-433.8350177951832
 30
0.0
 10
804.3650280107158
 20
-433.8350177951832
 30
0.0
 10
796.4275280126994
 20
-441.7670056404238
 30
0.0
 10
796.4275280126994
 20
-451.5527993662763
 30
0.0
 10
796.4275280126994
 20
-461.3396266207746
 30
0.0
 10
804.3650280107158
 20
-469.2729925042075
 30
0.0
 10
814.1470321315328
 20
-469.2729925042075
 30
0.0
 10
823.9245576282208
 20
-469.2729925042075
 30
0.0
 10
831.8565454734606
 20
-461.3396266207746
 30
0.0
 10
831.8565454734606
 20
-451.5527993662763
 30
0.0
 10
831.8565454734606
 20
-441.7670056404238
 30
0.0
 10
823.9245576282208
 20
-433.8350177951832
 30
0.0
 10
814.1470321315328
 20
-433.8350177951832
 30
0.0
  0
INSERT
  5
1C4
330
19B
100
AcDbEntity
  8
Capa 1
100
AcDbBlockReference
  2
block 4
 10
0.0
 20
0.000000000003638
 30
0.0
  0
INSERT
  5
1CD
330
19B
100
AcDbEntity
  8
Capa 1
100
AcDbBlockReference
  2
block 5
 10
0.0
 20
0.000000000003638
 30
0.0
  0
INSERT
  5
1CE
330
19B
100
AcDbEntity
  8
Capa 1
100
AcDbBlockReference
  2
block 8
 10
0.0
 20
0.000000000003638
 30
0.0
  0
INSERT
  5
1CF
330
19B
100
AcDbEntity
  8
Capa 1
100
AcDbBlockReference
  2
block 9
 10
0.0
 20
0.000000000003638
 30
0.0
  0
INSERT
  5
1D0
330
19B
100
AcDbEntity
  8
Capa 1
100
AcDbBlockReference
  2
block 10
 10
0.0
 20
0.000000000003638
 30
0.0
  0
INSERT
  5
1D1
330
19B
100
AcDbEntity
  8
Capa 1
100
AcDbBlockReference
  2
block 11
 10
0.0
 20
0.000000000003638
 30
0.0
  0
INSERT
  5
1D2
330
19B
100
AcDbEntity
  8
Capa 1
100
AcDbBlockReference
  2
block 12
 10
0.0
 20
0.000000000003638
 30
0.0
  0
INSERT
  5
1D3
330
19B
100
AcDbEntity
  8
Capa 1
100
AcDbBlockReference
  2
block 13
 10
0.0
 20
0.000000000003638
 30
0.0
  0
INSERT
  5
1D4
330
19B
100
AcDbEntity
  8
Capa 1
100
AcDbBlockReference
  2
block 14
 10
0.0
 20
0.000000000003638
 30
0.0
  0
INSERT
  5
1D5
330
19B
100
AcDbEntity
  8
Capa 1
100
AcDbBlockReference
  2
block 15
 10
0.0
 20
0.000000000003638
 30
0.0
  0
INSERT
  5
1D6
330
19B
100
AcDbEntity
  8
Capa 1
100
AcDbBlockReference
  2
block 16
 10
0.0
 20
0.000000000003638
 30
0.0
  0
INSERT
  5
1D7
330
19B
100
AcDbEntity
  8
Capa 1
100
AcDbBlockReference
  2
block 17
 10
0.0
 20
0.000000000003638
 30
0.0
  0
POLYLINE
  5
1D8
330
19B
100
AcDbEntity
  8
Capa 1
 62
   250
420
  1842203
370
    35
100
AcDb2dPolyline
 66
     1
 10
0.0
 20
0.0
 30
0.0
  0
VERTEX
  5
40B
330
1D8
100
AcDbEntity
  8
Capa 1
 62
   250
420
  1842203
370
    35
100
AcDbVertex
100
AcDb2dVertex
 10
516.5651962684286
 20
-708.4976669235692
 30
0.0
  0
VERTEX
  5
40C
330
1D8
100
AcDbEntity
  8
Capa 1
 62
   250
420
  1842203
370
    35
100
AcDbVertex
100
AcDb2dVertex
 10
516.7164359602311
 20
-708.2882051180638
 30
0.0
  0
VERTEX
  5
40D
330
1D8
100
AcDbEntity
  8
Capa 1
 62
   250
420
  1842203
370
    35
100
AcDbVertex
100
AcDb2dVertex
 10
450.1472004082969
 20
-615.9248506489675
 30
0.0
  0
VERTEX
  5
40E
330
1D8
100
AcDbEntity
  8
Capa 1
 62
   250
420
  1842203
370
    35
100
AcDbVertex
100
AcDb2dVertex
 10
383.5788261302341
 20
-708.2882051180638
 30
0.0
  0
VERTEX
  5
40F
330
1D8
100
AcDbEntity
  8
Capa 1
 62
   250
420
  1842203
370
    35
100
AcDbVertex
100
AcDb2dVertex
 10
447.417134491011
 20
-796.8640216106757
 30
0.0
  0
VERTEX
  5
410
330
1D8
100
AcDbEntity
  8
Capa 1
 62
   250
420
  1842203
370
    35
100
AcDbVertex
100
AcDb2dVertex
 10
383.5788261302341
 20
-796.8640216106757
 30
0.0
  0
VERTEX
  5
411
330
1D8
100
AcDbEntity
  8
Capa 1
 62
   250
420
  1842203
370
    35
100
AcDbVertex
100
AcDb2dVertex
 10
383.5788261302341
 20
-799.686243832195
 30
0.0
  0
VERTEX
  5
412
330
1D8
100
AcDbEntity
  8
Capa 1
 62
   250
420
  1842203
370
    35
100
AcDbVertex
100
AcDb2dVertex
 10
447.417134491011
 20
-799.686243832195
 30
0.0
  0
VERTEX
  5
413
330
1D8
100
AcDbEntity
  8
Capa 1
 62
   250
420
  1842203
370
    35
100
AcDbVertex
100
AcDb2dVertex
 10
383.5788261302341
 20
-888.3237275339922
 30
0.0
  0
VERTEX
  5
414
330
1D8
100
AcDbEntity
  8
Capa 1
 62
   250
420
  1842203
370
    35
100
AcDbVertex
100
AcDb2dVertex
 10
383.5788261302341
 20
-893.0569442211782
 30
0.0
  0
VERTEX
  5
415
330
1D8
100
AcDbEntity
  8
Capa 1
 62
   250
420
  1842203
370
    35
100
AcDbVertex
100
AcDb2dVertex
 10
448.7693344689715
 20
-802.5646211101193
 30
0.0
  0
VERTEX
  5
416
330
1D8
100
AcDbEntity
  8
Capa 1
 62
   250
420
  1842203
370
    35
100
AcDbVertex
100
AcDb2dVertex
 10
448.7693344689715
 20
-899.9967445666662
 30
0.0
  0
VERTEX
  5
417
330
1D8
100
AcDbEntity
  8
Capa 1
 62
   250
420
  1842203
370
    35
100
AcDbVertex
100
AcDb2dVertex
 10
451.5259276214938
 20
-899.997089076216
 30
0.0
  0
VERTEX
  5
418
330
1D8
100
AcDbEntity
  8
Capa 1
 62
   250
420
  1842203
370
    35
100
AcDbVertex
100
AcDb2dVertex
 10
451.5259276214938
 20
-802.5642766005731
 30
0.0
  0
VERTEX
  5
419
330
1D8
100
AcDbEntity
  8
Capa 1
 62
   250
420
  1842203
370
    35
100
AcDbVertex
100
AcDb2dVertex
 10
516.7164359602311
 20
-892.9980330883809
 30
0.0
  0
VERTEX
  5
41A
330
1D8
100
AcDbEntity
  8
Capa 1
 62
   250
420
  1842203
370
    35
100
AcDbVertex
100
AcDb2dVertex
 10
516.7164359602311
 20
-888.2944442223671
 30
0.0
  0
VERTEX
  5
41B
330
1D8
100
AcDbEntity
  8
Capa 1
 62
   250
420
  1842203
370
    35
100
AcDbVertex
100
AcDb2dVertex
 10
452.8777830899051
 20
-799.686243832195
 30
0.0
  0
VERTEX
  5
41C
330
1D8
100
AcDbEntity
  8
Capa 1
 62
   250
420
  1842203
370
    35
100
AcDbVertex
100
AcDb2dVertex
 10
516.7164359602311
 20
-799.686243832195
 30
0.0
  0
VERTEX
  5
41D
330
1D8
100
AcDbEntity
  8
Capa 1
 62
   250
420
  1842203
370
    35
100
AcDbVertex
100
AcDb2dVertex
 10
516.7164359602311
 20
-796.8640216106757
 30
0.0
  0
VERTEX
  5
41E
330
1D8
100
AcDbEntity
  8
Capa 1
 62
   250
420
  1842203
370
    35
100
AcDbVertex
100
AcDb2dVertex
 10
452.8777830899051
 20
-796.8640216106757
 30
0.0
  0
VERTEX
  5
41F
330
1D8
100
AcDbEntity
  8
Capa 1
 62
   250
420
  1842203
370
    35
100
AcDbVertex
100
AcDb2dVertex
 10
516.5651962684286
 20
-708.4976669235692
 30
0.0
  0
SEQEND
  5
420
330
1D8
100
AcDbEntity
  8
Capa 1
370
    35
  0
POLYLINE
  5
1EF
330
19B
100
AcDbEntity
  8
Capa 1
 62
   250
420
  1842203
370
    35
100
AcDb2dPolyline
 66
     1
 10
0.0
 20
0.0
 30
0.0
  0
VERTEX
  5
422
330
1EF
100
AcDbEntity
  8
Capa 1
 62
   250
420
  1842203
370
    35
100
AcDbVertex
100
AcDb2dVertex
 10
448.7693344689715
 20
-793.9859888423016
 30
0.0
  0
VERTEX
  5
423
330
1EF
100
AcDbEntity
  8
Capa 1
 62
   250
420
  1842203
370
    35
100
AcDbVertex
100
AcDb2dVertex
 10
388.0312675353716
 20
-709.7120630821191
 30
0.0
  0
VERTEX
  5
424
330
1EF
100
AcDbEntity
  8
Capa 1
 62
   250
420
  1842203
370
    35
100
AcDbVertex
100
AcDb2dVertex
 10
448.7693344689715
 20
-709.7120630821191
 30
0.0
  0
VERTEX
  5
425
330
1EF
100
AcDbEntity
  8
Capa 1
 62
   250
420
  1842203
370
    35
100
AcDbVertex
100
AcDb2dVertex
 10
448.7693344689715
 20
-793.9859888423016
 30
0.0
  0
SEQEND
  5
426
330
1EF
100
AcDbEntity
  8
Capa 1
370
    35
  0
POLYLINE
  5
1F5
330
19B
100
AcDbEntity
  8
Capa 1
 62
   250
420
  1842203
370
    35
100
AcDb2dPolyline
 66
     1
 10
0.0
 20
0.0
 30
0.0
  0
VERTEX
  5
428
330
1F5
100
AcDbEntity
  8
Capa 1
 62
   250
420
  1842203
370
    35
100
AcDbVertex
100
AcDb2dVertex
 10
448.7693344689715
 20
-706.8894963510538
 30
0.0
  0
VERTEX
  5
429
330
1F5
100
AcDbEntity
  8
Capa 1
 62
   250
420
  1842203
370
    35
100
AcDbVertex
100
AcDb2dVertex
 10
388.0124917649764
 20
-706.8894963510538
 30
0.0
  0
VERTEX
  5
42A
330
1F5
100
AcDbEntity
  8
Capa 1
 62
   250
420
  1842203
370
    35
100
AcDbVertex
100
AcDb2dVertex
 10
448.7693344689715
 20
-622.5907659033762
 30
0.0
  0
VERTEX
  5
42B
330
1F5
100
AcDbEntity
  8
Capa 1
 62
   250
420
  1842203
370
    35
100
AcDbVertex
100
AcDb2dVertex
 10
448.7693344689715
 20
-706.8894963510538
 30
0.0
  0
SEQEND
  5
42C
330
1F5
100
AcDbEntity
  8
Capa 1
370
    35
  0
POLYLINE
  5
1FB
330
19B
100
AcDbEntity
  8
Capa 1
 62
   250
420
  1842203
370
    35
100
AcDb2dPolyline
 66
     1
 10
0.0
 20
0.0
 30
0.0
  0
VERTEX
  5
42E
330
1FB
100
AcDbEntity
  8
Capa 1
 62
   250
420
  1842203
370
    35
100
AcDbVertex
100
AcDb2dVertex
 10
451.5259276214938
 20
-622.5907659033762
 30
0.0
  0
VERTEX
  5
42F
330
1FB
100
AcDbEntity
  8
Capa 1
 62
   250
420
  1842203
370
    35
100
AcDbVertex
100
AcDb2dVertex
 10
512.2822535611667
 20
-706.8894963510538
 30
0.0
  0
VERTEX
  5
430
330
1FB
100
AcDbEntity
  8
Capa 1
 62
   250
420
  1842203
370
    35
100
AcDbVertex
100
AcDb2dVertex
 10
451.5259276214938
 20
-706.8894963510538
 30
0.0
  0
VERTEX
  5
431
330
1FB
100
AcDbEntity
  8
Capa 1
 62
   250
420
  1842203
370
    35
100
AcDbVertex
100
AcDb2dVertex
 10
451.5259276214938
 20
-622.5907659033762
 30
0.0
  0
SEQEND
  5
432
330
1FB
100
AcDbEntity
  8
Capa 1
370
    35
  0
POLYLINE
  5
201
330
19B
100
AcDbEntity
  8
Capa 1
 62
   250
420
  1842203
370
    35
100
AcDb2dPolyline
 66
     1
 10
0.0
 20
0.0
 30
0.0
  0
VERTEX
  5
434
330
201
100
AcDbEntity
  8
Capa 1
 62
   250
420
  1842203
370
    35
100
AcDbVertex
100
AcDb2dVertex
 10
451.5259276214938
 20
-793.9859888423016
 30
0.0
  0
VERTEX
  5
435
330
201
100
AcDbEntity
  8
Capa 1
 62
   250
420
  1842203
370
    35
100
AcDbVertex
100
AcDb2dVertex
 10
451.5259276214938
 20
-709.7120630821191
 30
0.0
  0
VERTEX
  5
436
330
201
100
AcDbEntity
  8
Capa 1
 62
   250
420
  1842203
370
    35
100
AcDbVertex
100
AcDb2dVertex
 10
512.2636500455455
 20
-709.7120630821191
 30
0.0
  0
VERTEX
  5
437
330
201
100
AcDbEntity
  8
Capa 1
 62
   250
420
  1842203
370
    35
100
AcDbVertex
100
AcDb2dVertex
 10
451.5259276214938
 20
-793.9859888423016
 30
0.0
  0
SEQEND
  5
438
330
201
100
AcDbEntity
  8
Capa 1
370
    35
  0
INSERT
  5
207
330
19B
100
AcDbEntity
  8
Capa 1
100
AcDbBlockReference
  2
block 18
 10
0.0
 20
0.000000000003638
 30
0.0
  0
INSERT
  5
208
330
19B
100
AcDbEntity
  8
Capa 1
100
AcDbBlockReference
  2
block 19
 10
0.0
 20
0.000000000003638
 30
0.0
  0
INSERT
  5
209
330
19B
100
AcDbEntity
  8
Capa 1
100
AcDbBlockReference
  2
block 20
 10
0.0
 20
0.000000000003638
 30
0.0
  0
INSERT
  5
20A
330
19B
100
AcDbEntity
  8
Capa 1
100
AcDbBlockReference
  2
block 21
 10
0.0
 20
0.000000000003638
 30
0.0
  0
INSERT
  5
20B
330
19B
100
AcDbEntity
  8
Capa 1
100
AcDbBlockReference
  2
block 22
 10
0.0
 20
0.000000000003638
 30
0.0
  0
INSERT
  5
20C
330
19B
100
AcDbEntity
  8
Capa 1
100
AcDbBlockReference
  2
block 23
 10
0.0
 20
0.000000000003638
 30
0.0
  0
ENDBLK
  5
20D
330
19B
100
AcDbEntity
  8
0
100
AcDbBlockEnd
  0
BLOCK
  5
20F
330
20E
100
AcDbEntity
  8
0
100
AcDbBlockBegin
  2
block 3
 70
     0
 10
0.0
 20
0.0
 30
0.0
  3
block 3
  1

  0
SPLINE
  5
210
330
20E
100
AcDbEntity
  8
Capa 1
 62
   250
420
  1842203
370
    35
100
AcDbSpline
210
0.0
220
0.0
230
1.0
 70
     9
 71
     3
 72
    53
 73
    49
 74
     0
 42
0.000000001
 43
0.0000000001
 40
0.0
 40
0.0
 40
0.0
 40
0.0
 40
1.0
 40
1.0
 40
1.0
 40
2.0
 40
2.0
 40
2.0
 40
3.0
 40
3.0
 40
3.0
 40
4.0
 40
4.0
 40
4.0
 40
5.0
 40
5.0
 40
5.0
 40
6.0
 40
6.0
 40
6.0
 40
7.0
 40
7.0
 40
7.0
 40
8.0
 40
8.0
 40
8.0
 40
9.0
 40
9.0
 40
9.0
 40
10.0
 40
10.0
 40
10.0
 40
11.0
 40
11.0
 40
11.0
 40
12.0
 40
12.0
 40
12.0
 40
13.0
 40
13.0
 40
13.0
 40
14.0
 40
14.0
 40
14.0
 40
15.0
 40
15.0
 40
15.0
 40
16.0
 40
16.0
 40
16.0
 40
16.0
 10
739.04774015812
 20
-305.112986848635
 30
0.0
 10
716.5746932887381
 20
-299.0816581826081
 30
0.0
 10
700.3286565089456
 20
-279.5608858893112
 30
0.0
 10
698.4779512142694
 20
-256.3664360253181
 30
0.0
 10
692.9916366540091
 20
-187.6050862161196
 30
0.0
 10
673.4882620929128
 20
-122.135352888303
 30
0.0
 10
630.8527938961063
 20
-75.62966442336689
 30
0.0
 10
586.9639999617659
 20
-27.75661756033515
 30
0.0
 10
518.5633516498731
 20
0.0208428276857615
 30
0.0
 10
450.1620143188831
 20
0.0208428276857615
 30
0.0
 10
381.7610214974417
 20
0.0208428276857615
 30
0.0
 10
313.3603731855489
 20
-27.75661756033515
 30
0.0
 10
269.47123474166
 20
-75.62966442336689
 30
0.0
 10
226.8361110544021
 20
-122.135352888303
 30
0.0
 10
207.3325642385315
 20
-187.6050862161196
 30
0.0
 10
201.8464219330453
 20
-256.3664360253181
 30
0.0
 10
199.9957166383691
 20
-279.5608858893112
 30
0.0
 10
183.7496798585765
 20
-299.0816581826081
 30
0.0
 10
161.2773220082918
 20
-305.112986848635
 30
0.0
 10
95.72852373908872
 20
-322.7060559631603
 30
0.0
 10
50.15852320794647
 20
-382.1196559374562
 30
0.0
 10
50.15852320794647
 20
-449.9892427802977
 30
0.0
 10
50.15852320794647
 20
-516.2516925792703
 30
0.0
 10
84.93934595315753
 20
-574.6636310412299
 30
0.0
 10
135.7185031127718
 20
-593.6812471389059
 30
0.0
 10
156.0764336089844
 20
-601.305932466861
 30
0.0
 10
170.0333766936028
 20
-620.2064153180388
 30
0.0
 10
171.3307996533479
 20
-641.9070717796276
 30
0.0
 10
174.5886541989744
 20
-696.3978025602755
 30
0.0
 10
185.3728365964519
 20
-748.6709253770682
 30
0.0
 10
212.5546399750731
 20
-790.0175833528427
 30
0.0
 10
259.3533338110298
 20
-861.2029023454633
 30
0.0
 10
354.7580185745048
 20
-899.9995006430557
 30
0.0
 10
450.1620143188831
 20
-899.9995006430557
 30
0.0
 10
545.5666990823583
 20
-899.9995006430557
 30
0.0
 10
640.9713838458335
 20
-861.2029023454633
 30
0.0
 10
687.7702499365644
 20
-790.0175833528427
 30
0.0
 10
714.9520533151857
 20
-748.6709253770682
 30
0.0
 10
725.7358912031146
 20
-696.3978025602755
 30
0.0
 10
728.9939180035153
 20
-641.9070717796276
 30
0.0
 10
730.290996453712
 20
-620.2064153180388
 30
0.0
 10
744.247767283556
 20
-601.305932466861
 30
0.0
 10
764.6062145440916
 20
-593.6812471389059
 30
0.0
 10
815.3848549393829
 20
-574.6636310412299
 30
0.0
 10
850.1655054298197
 20
-516.2516925792703
 30
0.0
 10
850.1655054298197
 20
-449.9892427802977
 30
0.0
 10
850.1655054298197
 20
-382.1196559374562
 30
0.0
 10
804.5958494082261
 20
-322.7060559631603
 30
0.0
 10
739.04774015812
 20
-305.112986848635
 30
0.0
  0
ENDBLK
  5
211
330
20E
100
AcDbEntity
  8
0
100
AcDbBlockEnd
  0
BLOCK
  5
213
330
212
100
AcDbEntity
  8
0
100
AcDbBlockBegin
  2
block 4
 70
     0
 10
0.0
 20
0.0
 30
0.0
  3
block 4
  1

  0
SPLINE
  5
214
330
212
100
AcDbEntity
  8
Capa 1
 62
   250
420
  1842203
370
    35
100
AcDbSpline
210
0.0
220
0.0
230
1.0
 70
     9
 71
     3
 72
    89
 73
    85
 74
     0
 42
0.000000001
 43
0.0000000001
 40
0.0
 40
0.0
 40
0.0
 40
0.0
 40
1.0
 40
1.0
 40
1.0
 40
2.0
 40
2.0
 40
2.0
 40
3.0
 40
3.0
 40
3.0
 40
4.0
 40
4.0
 40
4.0
 40
5.0
 40
5.0
 40
5.0
 40
6.0
 40
6.0
 40
6.0
 40
7.0
 40
7.0
 40
7.0
 40
8.0
 40
8.0
 40
8.0
 40
9.0
 40
9.0
 40
9.0
 40
10.0
 40
10.0
 40
10.0
 40
11.0
 40
11.0
 40
11.0
 40
12.0
 40
12.0
 40
12.0
 40
13.0
 40
13.0
 40
13.0
 40
14.0
 40
14.0
 40
14.0
 40
15.0
 40
15.0
 40
15.0
 40
16.0
 40
16.0
 40
16.0
 40
17.0
 40
17.0
 40
17.0
 40
18.0
 40
18.0
 40
18.0
 40
19.0
 40
19.0
 40
19.0
 40
20.0
 40
20.0
 40
20.0
 40
21.0
 40
21.0
 40
21.0
 40
22.0
 40
22.0
 40
22.0
 40
23.0
 40
23.0
 40
23.0
 40
24.0
 40
24.0
 40
24.0
 40
25.0
 40
25.0
 40
25.0
 40
26.0
 40
26.0
 40
26.0
 40
27.0
 40
27.0
 40
27.0
 40
28.0
 40
28.0
 40
28.0
 40
28.0
 10
517.453686394074
 20
-472.1923664184101
 30
0.0
 10
517.453686394074
 20
-472.1923664184101
 30
0.0
 10
453.5537108241116
 20
-472.1923664184101
 30
0.0
 10
453.5537108241116
 20
-472.1923664184101
 30
0.0
 10
453.5537108241116
 20
-472.1923664184101
 30
0.0
 10
498.7233912598678
 20
-427.0144177534895
 30
0.0
 10
498.7233912598678
 20
-427.0144177534895
 30
0.0
 10
498.0719237036071
 20
-426.335561688121
 30
0.0
 10
497.4063312558568
 20
-425.670141495145
 30
0.0
 10
496.727302935714
 20
-425.0190184484327
 30
0.0
 10
496.727302935714
 20
-425.0190184484327
 30
0.0
 10
451.5586560286033
 20
-470.1962780942563
 30
0.0
 10
451.5586560286033
 20
-470.1962780942563
 30
0.0
 10
451.5586560286033
 20
-470.1962780942563
 30
0.0
 10
451.5586560286033
 20
-406.3193846640452
 30
0.0
 10
451.5586560286033
 20
-406.3193846640452
 30
0.0
 10
451.0890895139636
 20
-406.3097383966865
 30
0.0
 10
450.6191784897758
 20
-406.3016424222961
 30
0.0
 10
450.1472004082966
 20
-406.3016424222961
 30
0.0
 10
449.6755668363658
 20
-406.3016424222961
 30
0.0
 10
449.2060003217263
 20
-406.3097383966865
 30
0.0
 10
448.7364338070867
 20
-406.3193846640452
 30
0.0
 10
448.7364338070867
 20
-406.3193846640452
 30
0.0
 10
448.7364338070867
 20
-470.1969671133533
 30
0.0
 10
448.7364338070867
 20
-470.1969671133533
 30
0.0
 10
448.7364338070867
 20
-470.1969671133533
 30
0.0
 10
403.5665811165562
 20
-425.0197074675297
 30
0.0
 10
403.5665811165562
 20
-425.0197074675297
 30
0.0
 10
402.8873805416393
 20
-425.6706582594678
 30
0.0
 10
402.2221326034376
 20
-426.3360784524438
 30
0.0
 10
401.5706650471768
 20
-427.014762263038
 30
0.0
 10
401.5706650471768
 20
-427.014762263038
 30
0.0
 10
446.7406899924815
 20
-472.1923664184101
 30
0.0
 10
446.7406899924815
 20
-472.1923664184101
 30
0.0
 10
446.7406899924815
 20
-472.1923664184101
 30
0.0
 10
382.840714422519
 20
-472.1923664184101
 30
0.0
 10
382.840714422519
 20
-472.1923664184101
 30
0.0
 10
382.8307236456118
 20
-472.6691676335688
 30
0.0
 10
382.8226276712214
 20
-473.1466578678244
 30
0.0
 10
382.8226276712214
 20
-473.6262151593713
 30
0.0
 10
382.8226276712214
 20
-474.0906140307827
 30
0.0
 10
382.8307236456118
 20
-474.5529458449034
 30
0.0
 10
382.8401976581962
 20
-475.015277659024
 30
0.0
 10
382.8401976581962
 20
-475.015277659024
 30
0.0
 10
446.7406899924815
 20
-475.015277659024
 30
0.0
 10
446.7406899924815
 20
-475.015277659024
 30
0.0
 10
446.7406899924815
 20
-475.015277659024
 30
0.0
 10
401.548616436071
 20
-520.2149304255017
 30
0.0
 10
401.548616436071
 20
-520.2149304255017
 30
0.0
 10
402.1997394827833
 20
-520.8943032551931
 30
0.0
 10
402.8651596757591
 20
-521.5595511933948
 30
0.0
 10
403.5441879959021
 20
-522.2110187496556
 30
0.0
 10
403.5441879959021
 20
-522.2110187496556
 30
0.0
 10
448.7364338070867
 20
-477.0106769640806
 30
0.0
 10
448.7364338070867
 20
-477.0106769640806
 30
0.0
 10
448.7364338070867
 20
-477.0106769640806
 30
0.0
 10
448.7364338070867
 20
-540.9330456546974
 30
0.0
 10
448.7364338070867
 20
-540.9330456546974
 30
0.0
 10
449.2060003217263
 20
-540.9426919220559
 30
0.0
 10
449.6755668363658
 20
-540.9509601512207
 30
0.0
 10
450.1472004082966
 20
-540.9509601512207
 30
0.0
 10
450.6191784897758
 20
-540.9509601512207
 30
0.0
 10
451.0890895139636
 20
-540.9426919220559
 30
0.0
 10
451.5586560286033
 20
-540.9330456546974
 30
0.0
 10
451.5586560286033
 20
-540.9330456546974
 30
0.0
 10
451.5586560286033
 20
-477.0113659831777
 30
0.0
 10
451.5586560286033
 20
-477.0113659831777
 30
0.0
 10
451.5586560286033
 20
-477.0113659831777
 30
0.0
 10
496.7503850754651
 20
-522.2110187496556
 30
0.0
 10
496.7503850754651
 20
-522.2110187496556
 30
0.0
 10
497.4290688860593
 20
-521.5595511933948
 30
0.0
 10
498.0946613338097
 20
-520.8943032551931
 30
0.0
 10
498.7457843805218
 20
-520.2152749350504
 30
0.0
 10
498.7457843805218
 20
-520.2152749350504
 30
0.0
 10
453.5537108241116
 20
-475.015277659024
 30
0.0
 10
453.5537108241116
 20
-475.015277659024
 30
0.0
 10
453.5537108241116
 20
-475.015277659024
 30
0.0
 10
517.4543754131711
 20
-475.015277659024
 30
0.0
 10
517.4543754131711
 20
-475.015277659024
 30
0.0
 10
517.4636771709812
 20
-474.5529458449034
 30
0.0
 10
517.471945400146
 20
-474.0906140307827
 30
0.0
 10
517.471945400146
 20
-473.6262151593713
 30
0.0
 10
517.471945400146
 20
-473.1466578678244
 30
0.0
 10
517.4636771709812
 20
-472.6691676335688
 30
0.0
 10
517.453686394074
 20
-472.1923664184101
 30
0.0
  0
ENDBLK
  5
215
330
212
100
AcDbEntity
  8
0
100
AcDbBlockEnd
  0
BLOCK
  5
217
330
216
100
AcDbEntity
  8
0
100
AcDbBlockBegin
  2
block 5
 70
     0
 10
0.0
 20
0.0
 30
0.0
  3
block 5
  1

  0
INSERT
  5
218
330
216
100
AcDbEntity
  8
Capa 1
100
AcDbBlockReference
  2
block 6
 10
0.0
 20
0.0
 30
0.0
  0
INSERT
  5
219
330
216
100
AcDbEntity
  8
Capa 1
100
AcDbBlockReference
  2
block 7
 10
0.0
 20
0.0
 30
0.0
  0
ENDBLK
  5
21A
330
216
100
AcDbEntity
  8
0
100
AcDbBlockEnd
  0
BLOCK
  5
21C
330
21B
100
AcDbEntity
  8
0
100
AcDbBlockBegin
  2
block 6
 70
     0
 10
0.0
 20
0.0
 30
0.0
  3
block 6
  1

  0
SPLINE
  5
21D
330
21B
100
AcDbEntity
  8
Capa 1
 62
   250
420
  1842203
370
    35
100
AcDbSpline
210
0.0
220
0.0
230
1.0
 70
     9
 71
     3
 72
   152
 73
   148
 74
     0
 42
0.000000001
 43
0.0000000001
 40
0.0
 40
0.0
 40
0.0
 40
0.0
 40
1.0
 40
1.0
 40
1.0
 40
2.0
 40
2.0
 40
2.0
 40
3.0
 40
3.0
 40
3.0
 40
4.0
 40
4.0
 40
4.0
 40
5.0
 40
5.0
 40
5.0
 40
6.0
 40
6.0
 40
6.0
 40
7.0
 40
7.0
 40
7.0
 40
8.0
 40
8.0
 40
8.0
 40
9.0
 40
9.0
 40
9.0
 40
10.0
 40
10.0
 40
10.0
 40
11.0
 40
11.0
 40
11.0
 40
12.0
 40
12.0
 40
12.0
 40
13.0
 40
13.0
 40
13.0
 40
14.0
 40
14.0
 40
14.0
 40
15.0
 40
15.0
 40
15.0
 40
16.0
 40
16.0
 40
16.0
 40
17.0
 40
17.0
 40
17.0
 40
18.0
 40
18.0
 40
18.0
 40
19.0
 40
19.0
 40
19.0
 40
20.0
 40
20.0
 40
20.0
 40
21.0
 40
21.0
 40
21.0
 40
22.0
 40
22.0
 40
22.0
 40
23.0
 40
23.0
 40
23.0
 40
24.0
 40
24.0
 40
24.0
 40
25.0
 40
25.0
 40
25.0
 40
26.0
 40
26.0
 40
26.0
 40
27.0
 40
27.0
 40
27.0
 40
28.0
 40
28.0
 40
28.0
 40
29.0
 40
29.0
 40
29.0
 40
30.0
 40
30.0
 40
30.0
 40
31.0
 40
31.0
 40
31.0
 40
32.0
 40
32.0
 40
32.0
 40
33.0
 40
33.0
 40
33.0
 40
34.0
 40
34.0
 40
34.0
 40
35.0
 40
35.0
 40
35.0
 40
36.0
 40
36.0
 40
36.0
 40
37.0
 40
37.0
 40
37.0
 40
38.0
 40
38.0
 40
38.0
 40
39.0
 40
39.0
 40
39.0
 40
40.0
 40
40.0
 40
40.0
 40
41.0
 40
41.0
 40
41.0
 40
42.0
 40
42.0
 40
42.0
 40
43.0
 40
43.0
 40
43.0
 40
44.0
 40
44.0
 40
44.0
 40
45.0
 40
45.0
 40
45.0
 40
46.0
 40
46.0
 40
46.0
 40
47.0
 40
47.0
 40
47.0
 40
48.0
 40
48.0
 40
48.0
 40
49.0
 40
49.0
 40
49.0
 40
49.0
 10
450.152884815847
 20
-371.6045354973767
 30
0.0
 10
449.7989012547376
 20
-371.6045354973767
 30
0.0
 10
449.4461234770481
 20
-371.6000568732459
 30
0.0
 10
449.0945514827783
 20
-371.5910996249842
 30
0.0
 10
449.0945514827783
 20
-371.5910996249842
 30
0.0
 10
448.7507309533505
 20
-371.5821423767225
 30
0.0
 10
448.7507309533505
 20
-371.5821423767225
 30
0.0
 10
448.7507309533505
 20
-371.5821423767225
 30
0.0
 10
448.7507309533505
 20
-327.0275837398577
 30
0.0
 10
448.7507309533505
 20
-327.0275837398577
 30
0.0
 10
448.7507309533505
 20
-327.0275837398577
 30
0.0
 10
423.3136961832341
 20
-361.5016207321073
 30
0.0
 10
423.3136961832341
 20
-361.5016207321073
 30
0.0
 10
423.3136961832341
 20
-361.5016207321073
 30
0.0
 10
423.0248249267956
 20
-361.2442720993592
 30
0.0
 10
423.0248249267956
 20
-361.2442720993592
 30
0.0
 10
422.4891125788393
 20
-360.767126374652
 30
0.0
 10
421.9614962052735
 20
-360.2724106629701
 30
0.0
 10
421.4564452071358
 20
-359.7740776010287
 30
0.0
 10
421.4564452071358
 20
-359.7740776010287
 30
0.0
 10
421.2390596820165
 20
-359.5592758975233
 30
0.0
 10
421.2390596820165
 20
-359.5592758975233
 30
0.0
 10
421.2390596820165
 20
-359.5592758975233
 30
0.0
 10
447.3671806064741
 20
-324.1490342071572
 30
0.0
 10
447.3671806064741
 20
-324.1490342071572
 30
0.0
 10
447.3671806064741
 20
-324.1490342071572
 30
0.0
 10
409.0766668356649
 20
-324.1490342071572
 30
0.0
 10
409.0766668356649
 20
-324.1490342071572
 30
0.0
 10
409.0766668356649
 20
-324.1490342071572
 30
0.0
 10
409.0766668356649
 20
-321.326467476092
 30
0.0
 10
409.0766668356649
 20
-321.326467476092
 30
0.0
 10
409.0766668356649
 20
-321.326467476092
 30
0.0
 10
447.3668360969257
 20
-321.326467476092
 30
0.0
 10
447.3668360969257
 20
-321.326467476092
 30
0.0
 10
447.3668360969257
 20
-321.326467476092
 30
0.0
 10
409.0082816902826
 20
-269.3404933679947
 30
0.0
 10
409.0082816902826
 20
-269.3404933679947
 30
0.0
 10
409.0082816902826
 20
-269.3404933679947
 30
0.0
 10
447.3668360969257
 20
-217.3550360242203
 30
0.0
 10
447.3668360969257
 20
-217.3550360242203
 30
0.0
 10
447.3668360969257
 20
-217.3550360242203
 30
0.0
 10
409.0766668356649
 20
-217.3550360242203
 30
0.0
 10
409.0766668356649
 20
-217.3550360242203
 30
0.0
 10
409.0766668356649
 20
-217.3550360242203
 30
0.0
 10
409.0766668356649
 20
-214.5324692931551
 30
0.0
 10
409.0766668356649
 20
-214.5324692931551
 30
0.0
 10
409.0766668356649
 20
-214.5324692931551
 30
0.0
 10
447.3668360969257
 20
-214.5324692931551
 30
0.0
 10
447.3668360969257
 20
-214.5324692931551
 30
0.0
 10
447.3668360969257
 20
-214.5324692931551
 30
0.0
 10
409.0082816902826
 20
-162.5468396946063
 30
0.0
 10
409.0082816902826
 20
-162.5468396946063
 30
0.0
 10
409.0082816902826
 20
-162.5468396946063
 30
0.0
 10
447.3668360969257
 20
-110.5612100960576
 30
0.0
 10
447.3668360969257
 20
-110.5612100960576
 30
0.0
 10
447.3668360969257
 20
-110.5612100960576
 30
0.0
 10
409.0766668356649
 20
-110.5612100960576
 30
0.0
 10
409.0766668356649
 20
-110.5612100960576
 30
0.0
 10
409.0766668356649
 20
-110.5612100960576
 30
0.0
 10
409.0766668356649
 20
-107.7386433649924
 30
0.0
 10
409.0766668356649
 20
-107.7386433649924
 30
0.0
 10
409.0766668356649
 20
-107.7386433649924
 30
0.0
 10
447.3668360969257
 20
-107.7386433649924
 30
0.0
 10
447.3668360969257
 20
-107.7386433649924
 30
0.0
 10
447.3668360969257
 20
-107.7386433649924
 30
0.0
 10
409.0082816902826
 20
-55.75266925689517
 30
0.0
 10
409.0082816902826
 20
-55.75266925689517
 30
0.0
 10
409.0082816902826
 20
-55.75266925689517
 30
0.0
 10
450.1614975545604
 20
0.0208428276857615
 30
0.0
 10
450.1614975545604
 20
0.0208428276857615
 30
0.0
 10
450.1614975545604
 20
0.0208428276857615
 30
0.0
 10
491.3154024379351
 20
-55.75266925689517
 30
0.0
 10
491.3154024379351
 20
-55.75266925689517
 30
0.0
 10
491.3154024379351
 20
-55.75266925689517
 30
0.0
 10
491.1610621601958
 20
-55.96213106239836
 30
0.0
 10
491.1610621601958
 20
-55.96213106239836
 30
0.0
 10
491.1610621601958
 20
-55.96213106239836
 30
0.0
 10
452.9570202860663
 20
-107.7386433649924
 30
0.0
 10
452.9570202860663
 20
-107.7386433649924
 30
0.0
 10
452.9570202860663
 20
-107.7386433649924
 30
0.0
 10
491.2058484015041
 20
-107.7386433649924
 30
0.0
 10
491.2058484015041
 20
-107.7386433649924
 30
0.0
 10
491.2058484015041
 20
-107.7386433649924
 30
0.0
 10
491.2058484015041
 20
-110.5612100960576
 30
0.0
 10
491.2058484015041
 20
-110.5612100960576
 30
0.0
 10
491.2058484015041
 20
-110.5612100960576
 30
0.0
 10
452.9570202860663
 20
-110.5612100960576
 30
0.0
 10
452.9570202860663
 20
-110.5612100960576
 30
0.0
 10
452.9570202860663
 20
-110.5612100960576
 30
0.0
 10
491.3154024379351
 20
-162.5466674398321
 30
0.0
 10
491.3154024379351
 20
-162.5466674398321
 30
0.0
 10
491.3154024379351
 20
-162.5466674398321
 30
0.0
 10
491.1610621601958
 20
-162.7561292453353
 30
0.0
 10
491.1610621601958
 20
-162.7561292453353
 30
0.0
 10
491.1610621601958
 20
-162.7561292453353
 30
0.0
 10
452.9570202860663
 20
-214.5324692931551
 30
0.0
 10
452.9570202860663
 20
-214.5324692931551
 30
0.0
 10
452.9570202860663
 20
-214.5324692931551
 30
0.0
 10
491.163129217487
 20
-214.5324692931551
 30
0.0
 10
491.163129217487
 20
-214.5324692931551
 30
0.0
 10
491.163129217487
 20
-214.5324692931551
 30
0.0
 10
491.163129217487
 20
-217.3550360242203
 30
0.0
 10
491.163129217487
 20
-217.3550360242203
 30
0.0
 10
491.163129217487
 20
-217.3550360242203
 30
0.0
 10
452.9570202860663
 20
-217.3550360242203
 30
0.0
 10
452.9570202860663
 20
-217.3550360242203
 30
0.0
 10
452.9570202860663
 20
-217.3550360242203
 30
0.0
 10
491.3154024379351
 20
-269.3404933679947
 30
0.0
 10
491.3154024379351
 20
-269.3404933679947
 30
0.0
 10
491.3154024379351
 20
-269.3404933679947
 30
0.0
 10
491.1610621601958
 20
-269.5499551734979
 30
0.0
 10
491.1610621601958
 20
-269.5499551734979
 30
0.0
 10
491.1610621601958
 20
-269.5499551734979
 30
0.0
 10
452.9570202860663
 20
-321.326467476092
 30
0.0
 10
452.9570202860663
 20
-321.326467476092
 30
0.0
 10
452.9570202860663
 20
-321.326467476092
 30
0.0
 10
491.2478785664241
 20
-321.326467476092
 30
0.0
 10
491.2478785664241
 20
-321.326467476092
 30
0.0
 10
491.2478785664241
 20
-321.326467476092
 30
0.0
 10
491.2478785664241
 20
-324.1490342071572
 30
0.0
 10
491.2478785664241
 20
-324.1490342071572
 30
0.0
 10
491.2478785664241
 20
-324.1490342071572
 30
0.0
 10
452.9570202860663
 20
-324.1490342071572
 30
0.0
 10
452.9570202860663
 20
-324.1490342071572
 30
0.0
 10
452.9570202860663
 20
-324.1490342071572
 30
0.0
 10
479.0770452361335
 20
-359.5482515919706
 30
0.0
 10
479.0770452361335
 20
-359.5482515919706
 30
0.0
 10
479.0770452361335
 20
-359.5482515919706
 30
0.0
 10
478.8600042205628
 20
-359.7628810407016
 30
0.0
 10
478.8600042205628
 20
-359.7628810407016
 30
0.0
 10
478.3508191078428
 20
-360.2660372363224
 30
0.0
 10
477.8230304795026
 20
-360.7609252027785
 30
0.0
 10
477.2924857747741
 20
-361.2339368129033
 30
0.0
 10
477.2924857747741
 20
-361.2339368129033
 30
0.0
 10
477.0037867731102
 20
-361.4912854456515
 30
0.0
 10
477.0037867731102
 20
-361.4912854456515
 30
0.0
 10
477.0037867731102
 20
-361.4912854456515
 30
0.0
 10
451.572780920093
 20
-327.0262057016636
 30
0.0
 10
451.572780920093
 20
-327.0262057016636
 30
0.0
 10
451.572780920093
 20
-327.0262057016636
 30
0.0
 10
451.572780920093
 20
-371.5809365933027
 30
0.0
 10
451.572780920093
 20
-371.5809365933027
 30
0.0
 10
451.572780920093
 20
-371.5809365933027
 30
0.0
 10
451.2296494097618
 20
-371.5902383511129
 30
0.0
 10
451.2296494097618
 20
-371.5902383511129
 30
0.0
 10
450.8720484983931
 20
-371.6000568732459
 30
0.0
 10
450.5123805297329
 20
-371.6045354973767
 30
0.0
 10
450.152884815847
 20
-371.6045354973767
 30
0.0
  0
POLYLINE
  5
21E
330
21B
100
AcDbEntity
  8
Capa 1
 62
   250
420
  1842203
370
    35
100
AcDb2dPolyline
 66
     1
 10
0.0
 20
0.0
 30
0.0
  0
VERTEX
  5
21F
330
21E
100
AcDbEntity
  8
Capa 1
 62
   250
420
  1842203
370
    35
100
AcDbVertex
100
AcDb2dVertex
 10
451.572780920093
 20
-270.7517767335273
 30
0.0
  0
VERTEX
  5
220
330
21E
100
AcDbEntity
  8
Capa 1
 62
   250
420
  1842203
370
    35
100
AcDbVertex
100
AcDb2dVertex
 10
451.572780920093
 20
-318.4492959815856
 30
0.0
  0
VERTEX
  5
221
330
21E
100
AcDbEntity
  8
Capa 1
 62
   250
420
  1842203
370
    35
100
AcDbVertex
100
AcDb2dVertex
 10
486.7664983592112
 20
-270.7517767335273
 30
0.0
  0
VERTEX
  5
222
330
21E
100
AcDbEntity
  8
Capa 1
 62
   250
420
  1842203
370
    35
100
AcDbVertex
100
AcDb2dVertex
 10
451.572780920093
 20
-270.7517767335273
 30
0.0
  0
SEQEND
  5
223
330
21E
100
AcDbEntity
  8
Capa 1
370
    35
  0
POLYLINE
  5
224
330
21B
100
AcDbEntity
  8
Capa 1
 62
   250
420
  1842203
370
    35
100
AcDb2dPolyline
 66
     1
 10
0.0
 20
0.0
 30
0.0
  0
VERTEX
  5
225
330
224
100
AcDbEntity
  8
Capa 1
 62
   250
420
  1842203
370
    35
100
AcDbVertex
100
AcDb2dVertex
 10
413.5570135142323
 20
-270.7517767335273
 30
0.0
  0
VERTEX
  5
226
330
224
100
AcDbEntity
  8
Capa 1
 62
   250
420
  1842203
370
    35
100
AcDbVertex
100
AcDb2dVertex
 10
448.7507309533505
 20
-318.4479179433915
 30
0.0
  0
VERTEX
  5
227
330
224
100
AcDbEntity
  8
Capa 1
 62
   250
420
  1842203
370
    35
100
AcDbVertex
100
AcDb2dVertex
 10
448.7507309533505
 20
-270.7517767335273
 30
0.0
  0
VERTEX
  5
228
330
224
100
AcDbEntity
  8
Capa 1
 62
   250
420
  1842203
370
    35
100
AcDbVertex
100
AcDb2dVertex
 10
413.5570135142323
 20
-270.7517767335273
 30
0.0
  0
SEQEND
  5
229
330
224
100
AcDbEntity
  8
Capa 1
370
    35
  0
POLYLINE
  5
22A
330
21B
100
AcDbEntity
  8
Capa 1
 62
   250
420
  1842203
370
    35
100
AcDb2dPolyline
 66
     1
 10
0.0
 20
0.0
 30
0.0
  0
VERTEX
  5
22B
330
22A
100
AcDbEntity
  8
Capa 1
 62
   250
420
  1842203
370
    35
100
AcDbVertex
100
AcDb2dVertex
 10
451.572780920093
 20
-267.9295545120107
 30
0.0
  0
VERTEX
  5
22C
330
22A
100
AcDbEntity
  8
Capa 1
 62
   250
420
  1842203
370
    35
100
AcDbVertex
100
AcDb2dVertex
 10
486.7664983592112
 20
-267.9295545120107
 30
0.0
  0
VERTEX
  5
22D
330
22A
100
AcDbEntity
  8
Capa 1
 62
   250
420
  1842203
370
    35
100
AcDbVertex
100
AcDb2dVertex
 10
451.572780920093
 20
-220.2322075187267
 30
0.0
  0
VERTEX
  5
22E
330
22A
100
AcDbEntity
  8
Capa 1
 62
   250
420
  1842203
370
    35
100
AcDbVertex
100
AcDb2dVertex
 10
451.572780920093
 20
-267.9295545120107
 30
0.0
  0
SEQEND
  5
22F
330
22A
100
AcDbEntity
  8
Capa 1
370
    35
  0
POLYLINE
  5
230
330
21B
100
AcDbEntity
  8
Capa 1
 62
   250
420
  1842203
370
    35
100
AcDb2dPolyline
 66
     1
 10
0.0
 20
0.0
 30
0.0
  0
VERTEX
  5
231
330
230
100
AcDbEntity
  8
Capa 1
 62
   250
420
  1842203
370
    35
100
AcDbVertex
100
AcDb2dVertex
 10
413.5570135142323
 20
-267.9295545120107
 30
0.0
  0
VERTEX
  5
232
330
230
100
AcDbEntity
  8
Capa 1
 62
   250
420
  1842203
370
    35
100
AcDbVertex
100
AcDb2dVertex
 10
448.7507309533505
 20
-267.9295545120107
 30
0.0
  0
VERTEX
  5
233
330
230
100
AcDbEntity
  8
Capa 1
 62
   250
420
  1842203
370
    35
100
AcDbVertex
100
AcDb2dVertex
 10
448.7507309533505
 20
-220.2337578116951
 30
0.0
  0
VERTEX
  5
234
330
230
100
AcDbEntity
  8
Capa 1
 62
   250
420
  1842203
370
    35
100
AcDbVertex
100
AcDb2dVertex
 10
413.5570135142323
 20
-267.9295545120107
 30
0.0
  0
SEQEND
  5
235
330
230
100
AcDbEntity
  8
Capa 1
370
    35
  0
POLYLINE
  5
236
330
21B
100
AcDbEntity
  8
Capa 1
 62
   250
420
  1842203
370
    35
100
AcDb2dPolyline
 66
     1
 10
0.0
 20
0.0
 30
0.0
  0
VERTEX
  5
237
330
236
100
AcDbEntity
  8
Capa 1
 62
   250
420
  1842203
370
    35
100
AcDbVertex
100
AcDb2dVertex
 10
451.572780920093
 20
-163.9579508053647
 30
0.0
  0
VERTEX
  5
238
330
236
100
AcDbEntity
  8
Capa 1
 62
   250
420
  1842203
370
    35
100
AcDbVertex
100
AcDb2dVertex
 10
451.572780920093
 20
-211.6551255438744
 30
0.0
  0
VERTEX
  5
239
330
236
100
AcDbEntity
  8
Capa 1
 62
   250
420
  1842203
370
    35
100
AcDbVertex
100
AcDb2dVertex
 10
486.7664983592112
 20
-163.9579508053647
 30
0.0
  0
VERTEX
  5
23A
330
236
100
AcDbEntity
  8
Capa 1
 62
   250
420
  1842203
370
    35
100
AcDbVertex
100
AcDb2dVertex
 10
451.572780920093
 20
-163.9579508053647
 30
0.0
  0
SEQEND
  5
23B
330
236
100
AcDbEntity
  8
Capa 1
370
    35
  0
POLYLINE
  5
23C
330
21B
100
AcDbEntity
  8
Capa 1
 62
   250
420
  1842203
370
    35
100
AcDb2dPolyline
 66
     1
 10
0.0
 20
0.0
 30
0.0
  0
VERTEX
  5
23D
330
23C
100
AcDbEntity
  8
Capa 1
 62
   250
420
  1842203
370
    35
100
AcDbVertex
100
AcDb2dVertex
 10
413.5566690046838
 20
-163.9579508053647
 30
0.0
  0
VERTEX
  5
23E
330
23C
100
AcDbEntity
  8
Capa 1
 62
   250
420
  1842203
370
    35
100
AcDbVertex
100
AcDb2dVertex
 10
448.7507309533505
 20
-211.6537475056803
 30
0.0
  0
VERTEX
  5
23F
330
23C
100
AcDbEntity
  8
Capa 1
 62
   250
420
  1842203
370
    35
100
AcDbVertex
100
AcDb2dVertex
 10
448.7507309533505
 20
-163.9579508053647
 30
0.0
  0
VERTEX
  5
240
330
23C
100
AcDbEntity
  8
Capa 1
 62
   250
420
  1842203
370
    35
100
AcDbVertex
100
AcDb2dVertex
 10
413.5566690046838
 20
-163.9579508053647
 30
0.0
  0
SEQEND
  5
241
330
23C
100
AcDbEntity
  8
Capa 1
370
    35
  0
POLYLINE
  5
242
330
21B
100
AcDbEntity
  8
Capa 1
 62
   250
420
  1842203
370
    35
100
AcDb2dPolyline
 66
     1
 10
0.0
 20
0.0
 30
0.0
  0
VERTEX
  5
243
330
242
100
AcDbEntity
  8
Capa 1
 62
   250
420
  1842203
370
    35
100
AcDbVertex
100
AcDb2dVertex
 10
451.572780920093
 20
-161.1353840742995
 30
0.0
  0
VERTEX
  5
244
330
242
100
AcDbEntity
  8
Capa 1
 62
   250
420
  1842203
370
    35
100
AcDbVertex
100
AcDb2dVertex
 10
486.7664983592112
 20
-161.1353840742995
 30
0.0
  0
VERTEX
  5
245
330
242
100
AcDbEntity
  8
Capa 1
 62
   250
420
  1842203
370
    35
100
AcDbVertex
100
AcDb2dVertex
 10
451.572780920093
 20
-113.4388983548868
 30
0.0
  0
VERTEX
  5
246
330
242
100
AcDbEntity
  8
Capa 1
 62
   250
420
  1842203
370
    35
100
AcDbVertex
100
AcDb2dVertex
 10
451.572780920093
 20
-161.1353840742995
 30
0.0
  0
SEQEND
  5
247
330
242
100
AcDbEntity
  8
Capa 1
370
    35
  0
POLYLINE
  5
248
330
21B
100
AcDbEntity
  8
Capa 1
 62
   250
420
  1842203
370
    35
100
AcDb2dPolyline
 66
     1
 10
0.0
 20
0.0
 30
0.0
  0
VERTEX
  5
249
330
248
100
AcDbEntity
  8
Capa 1
 62
   250
420
  1842203
370
    35
100
AcDbVertex
100
AcDb2dVertex
 10
413.5570135142323
 20
-161.1353840742995
 30
0.0
  0
VERTEX
  5
24A
330
248
100
AcDbEntity
  8
Capa 1
 62
   250
420
  1842203
370
    35
100
AcDbVertex
100
AcDb2dVertex
 10
448.7507309533505
 20
-161.1353840742995
 30
0.0
  0
VERTEX
  5
24B
330
248
100
AcDbEntity
  8
Capa 1
 62
   250
420
  1842203
370
    35
100
AcDbVertex
100
AcDb2dVertex
 10
448.7507309533505
 20
-113.4394151192096
 30
0.0
  0
VERTEX
  5
24C
330
248
100
AcDbEntity
  8
Capa 1
 62
   250
420
  1842203
370
    35
100
AcDbVertex
100
AcDb2dVertex
 10
413.5570135142323
 20
-161.1353840742995
 30
0.0
  0
SEQEND
  5
24D
330
248
100
AcDbEntity
  8
Capa 1
370
    35
  0
POLYLINE
  5
24E
330
21B
100
AcDbEntity
  8
Capa 1
 62
   250
420
  1842203
370
    35
100
AcDb2dPolyline
 66
     1
 10
0.0
 20
0.0
 30
0.0
  0
VERTEX
  5
24F
330
24E
100
AcDbEntity
  8
Capa 1
 62
   250
420
  1842203
370
    35
100
AcDbVertex
100
AcDb2dVertex
 10
451.572780920093
 20
-57.16412487720203
 30
0.0
  0
VERTEX
  5
250
330
24E
100
AcDbEntity
  8
Capa 1
 62
   250
420
  1842203
370
    35
100
AcDbVertex
100
AcDb2dVertex
 10
451.572780920093
 20
-104.860782851389
 30
0.0
  0
VERTEX
  5
251
330
24E
100
AcDbEntity
  8
Capa 1
 62
   250
420
  1842203
370
    35
100
AcDbVertex
100
AcDb2dVertex
 10
486.7664983592112
 20
-57.16412487720203
 30
0.0
  0
VERTEX
  5
252
330
24E
100
AcDbEntity
  8
Capa 1
 62
   250
420
  1842203
370
    35
100
AcDbVertex
100
AcDb2dVertex
 10
451.572780920093
 20
-57.16412487720203
 30
0.0
  0
SEQEND
  5
253
330
24E
100
AcDbEntity
  8
Capa 1
370
    35
  0
POLYLINE
  5
254
330
21B
100
AcDbEntity
  8
Capa 1
 62
   250
420
  1842203
370
    35
100
AcDb2dPolyline
 66
     1
 10
0.0
 20
0.0
 30
0.0
  0
VERTEX
  5
255
330
254
100
AcDbEntity
  8
Capa 1
 62
   250
420
  1842203
370
    35
100
AcDbVertex
100
AcDb2dVertex
 10
413.5570135142323
 20
-57.16412487720203
 30
0.0
  0
VERTEX
  5
256
330
254
100
AcDbEntity
  8
Capa 1
 62
   250
420
  1842203
370
    35
100
AcDbVertex
100
AcDb2dVertex
 10
448.7507309533505
 20
-104.8604383418404
 30
0.0
  0
VERTEX
  5
257
330
254
100
AcDbEntity
  8
Capa 1
 62
   250
420
  1842203
370
    35
100
AcDbVertex
100
AcDb2dVertex
 10
448.7507309533505
 20
-57.16412487720203
 30
0.0
  0
VERTEX
  5
258
330
254
100
AcDbEntity
  8
Capa 1
 62
   250
420
  1842203
370
    35
100
AcDbVertex
100
AcDb2dVertex
 10
413.5570135142323
 20
-57.16412487720203
 30
0.0
  0
SEQEND
  5
259
330
254
100
AcDbEntity
  8
Capa 1
370
    35
  0
POLYLINE
  5
25A
330
21B
100
AcDbEntity
  8
Capa 1
 62
   250
420
  1842203
370
    35
100
AcDb2dPolyline
 66
     1
 10
0.0
 20
0.0
 30
0.0
  0
VERTEX
  5
25B
330
25A
100
AcDbEntity
  8
Capa 1
 62
   250
420
  1842203
370
    35
100
AcDbVertex
100
AcDb2dVertex
 10
451.572780920093
 20
-54.34138589136257
 30
0.0
  0
VERTEX
  5
25C
330
25A
100
AcDbEntity
  8
Capa 1
 62
   250
420
  1842203
370
    35
100
AcDbVertex
100
AcDb2dVertex
 10
486.7664983592112
 20
-54.34138589136257
 30
0.0
  0
VERTEX
  5
25D
330
25A
100
AcDbEntity
  8
Capa 1
 62
   250
420
  1842203
370
    35
100
AcDbVertex
100
AcDb2dVertex
 10
451.572780920093
 20
-6.645072426724149
 30
0.0
  0
VERTEX
  5
25E
330
25A
100
AcDbEntity
  8
Capa 1
 62
   250
420
  1842203
370
    35
100
AcDbVertex
100
AcDb2dVertex
 10
451.572780920093
 20
-54.34138589136257
 30
0.0
  0
SEQEND
  5
25F
330
25A
100
AcDbEntity
  8
Capa 1
370
    35
  0
POLYLINE
  5
260
330
21B
100
AcDbEntity
  8
Capa 1
 62
   250
420
  1842203
370
    35
100
AcDb2dPolyline
 66
     1
 10
0.0
 20
0.0
 30
0.0
  0
VERTEX
  5
261
330
260
100
AcDbEntity
  8
Capa 1
 62
   250
420
  1842203
370
    35
100
AcDbVertex
100
AcDb2dVertex
 10
413.5570135142323
 20
-54.34138589136257
 30
0.0
  0
VERTEX
  5
262
330
260
100
AcDbEntity
  8
Capa 1
 62
   250
420
  1842203
370
    35
100
AcDbVertex
100
AcDb2dVertex
 10
448.7507309533505
 20
-54.34138589136257
 30
0.0
  0
VERTEX
  5
263
330
260
100
AcDbEntity
  8
Capa 1
 62
   250
420
  1842203
370
    35
100
AcDbVertex
100
AcDb2dVertex
 10
448.7507309533505
 20
-6.645416936272672
 30
0.0
  0
VERTEX
  5
264
330
260
100
AcDbEntity
  8
Capa 1
 62
   250
420
  1842203
370
    35
100
AcDbVertex
100
AcDb2dVertex
 10
413.5570135142323
 20
-54.34138589136257
 30
0.0
  0
SEQEND
  5
265
330
260
100
AcDbEntity
  8
Capa 1
370
    35
  0
ENDBLK
  5
266
330
21B
100
AcDbEntity
  8
0
100
AcDbBlockEnd
  0
BLOCK
  5
268
330
267
100
AcDbEntity
  8
0
100
AcDbBlockBegin
  2
block 7
 70
     0
 10
0.0
 20
0.0
 30
0.0
  3
block 7
  1

  0
SPLINE
  5
269
330
267
100
AcDbEntity
  8
Capa 1
 62
   250
420
  1842203
370
    35
100
AcDbSpline
210
0.0
220
0.0
230
1.0
 70
     9
 71
     3
 72
    41
 73
    37
 74
     0
 42
0.000000001
 43
0.0000000001
 40
0.0
 40
0.0
 40
0.0
 40
0.0
 40
1.0
 40
1.0
 40
1.0
 40
2.0
 40
2.0
 40
2.0
 40
3.0
 40
3.0
 40
3.0
 40
4.0
 40
4.0
 40
4.0
 40
5.0
 40
5.0
 40
5.0
 40
6.0
 40
6.0
 40
6.0
 40
7.0
 40
7.0
 40
7.0
 40
8.0
 40
8.0
 40
8.0
 40
9.0
 40
9.0
 40
9.0
 40
10.0
 40
10.0
 40
10.0
 40
11.0
 40
11.0
 40
11.0
 40
12.0
 40
12.0
 40
12.0
 40
12.0
 10
450.1618420641086
 20
-377.2035046800046
 30
0.0
 10
424.1055513805187
 20
-377.2035046800046
 30
0.0
 10
402.9073620954537
 20
-356.0015257899058
 30
0.0
 10
402.9073620954537
 20
-329.9409287369592
 30
0.0
 10
402.9073620954537
 20
-329.9409287369592
 30
0.0
 10
402.9073620954537
 20
-4.360112846132195
 30
0.0
 10
402.9073620954537
 20
-4.360112846132195
 30
0.0
 10
402.9073620954537
 20
-4.360112846132195
 30
0.0
 10
405.8396551177241
 20
-3.832496472566181
 30
0.0
 10
405.8396551177241
 20
-3.832496472566181
 30
0.0
 10
405.8396551177241
 20
-3.832496472566181
 30
0.0
 10
405.8396551177241
 20
-329.9405842274107
 30
0.0
 10
405.8396551177241
 20
-329.9405842274107
 30
0.0
 10
405.8396551177241
 20
-354.3845702239039
 30
0.0
 10
425.722679201295
 20
-374.2706948934115
 30
0.0
 10
450.1618420641086
 20
-374.2706948934115
 30
0.0
 10
474.5329642910887
 20
-374.2706948934115
 30
0.0
 10
494.3725801715458
 20
-354.4958468080774
 30
0.0
 10
494.4835122461706
 20
-330.1466009374286
 30
0.0
 10
494.4835122461706
 20
-330.1466009374286
 30
0.0
 10
494.4828232270736
 20
-329.9409287369592
 30
0.0
 10
494.4828232270736
 20
-329.9409287369592
 30
0.0
 10
494.4828232270736
 20
-329.9409287369592
 30
0.0
 10
494.4828232270736
 20
-3.832151963017656
 30
0.0
 10
494.4828232270736
 20
-3.832151963017656
 30
0.0
 10
494.4828232270736
 20
-3.832151963017656
 30
0.0
 10
497.4166665423124
 20
-4.360112846132195
 30
0.0
 10
497.4166665423124
 20
-4.360112846132195
 30
0.0
 10
497.4166665423124
 20
-4.360112846132195
 30
0.0
 10
497.4166665423124
 20
-329.9405842274107
 30
0.0
 10
497.4166665423124
 20
-329.9405842274107
 30
0.0
 10
497.4166665423124
 20
-342.54498282452
 30
0.0
 10
492.4963811702787
 20
-354.4081691279779
 30
0.0
 10
483.5604925006377
 20
-363.3449190714902
 30
0.0
 10
474.6252928500935
 20
-372.2816690150025
 30
0.0
 10
462.7638290943785
 20
-377.2035046800046
 30
0.0
 10
450.1618420641086
 20
-377.2035046800046
 30
0.0
  0
ENDBLK
  5
26A
330
267
100
AcDbEntity
  8
0
100
AcDbBlockEnd
  0
BLOCK
  5
26C
330
26B
100
AcDbEntity
  8
0
100
AcDbBlockBegin
  2
block 8
 70
     0
 10
0.0
 20
0.0
 30
0.0
  3
block 8
  1

  0
POLYLINE
  5
26D
330
26B
100
AcDbEntity
  8
Capa 1
 62
   250
420
  1842203
370
    35
100
AcDb2dPolyline
 66
     1
 10
0.0
 20
0.0
 30
0.0
  0
VERTEX
  5
26E
330
26D
100
AcDbEntity
  8
Capa 1
 62
   250
420
  1842203
370
    35
100
AcDbVertex
100
AcDb2dVertex
 10
259.0401746314205
 20
-414.0288193409373
 30
0.0
  0
VERTEX
  5
26F
330
26D
100
AcDbEntity
  8
Capa 1
 62
   250
420
  1842203
370
    35
100
AcDbVertex
100
AcDb2dVertex
 10
256.2179524099038
 20
-414.0436332515238
 30
0.0
  0
VERTEX
  5
270
330
26D
100
AcDbEntity
  8
Capa 1
 62
   250
420
  1842203
370
    35
100
AcDbVertex
100
AcDb2dVertex
 10
256.2179524099038
 20
-358.3641722736902
 30
0.0
  0
VERTEX
  5
271
330
26D
100
AcDbEntity
  8
Capa 1
 62
   250
420
  1842203
370
    35
100
AcDbVertex
100
AcDb2dVertex
 10
244.7829914752626
 20
-369.8010280108484
 30
0.0
  0
VERTEX
  5
272
330
26D
100
AcDbEntity
  8
Capa 1
 62
   250
420
  1842203
370
    35
100
AcDbVertex
100
AcDb2dVertex
 10
242.7869031511088
 20
-367.8052841962431
 30
0.0
  0
VERTEX
  5
273
330
26D
100
AcDbEntity
  8
Capa 1
 62
   250
420
  1842203
370
    35
100
AcDbVertex
100
AcDb2dVertex
 10
254.2225531048472
 20
-356.3679116947622
 30
0.0
  0
VERTEX
  5
274
330
26D
100
AcDbEntity
  8
Capa 1
 62
   250
420
  1842203
370
    35
100
AcDbVertex
100
AcDb2dVertex
 10
217.4213541123113
 20
-356.3679116947622
 30
0.0
  0
VERTEX
  5
275
330
26D
100
AcDbEntity
  8
Capa 1
 62
   250
420
  1842203
370
    35
100
AcDbVertex
100
AcDb2dVertex
 10
217.4213541123113
 20
-353.5453449636969
 30
0.0
  0
VERTEX
  5
276
330
26D
100
AcDbEntity
  8
Capa 1
 62
   250
420
  1842203
370
    35
100
AcDbVertex
100
AcDb2dVertex
 10
254.2220363405244
 20
-353.5453449636969
 30
0.0
  0
VERTEX
  5
277
330
26D
100
AcDbEntity
  8
Capa 1
 62
   250
420
  1842203
370
    35
100
AcDbVertex
100
AcDb2dVertex
 10
242.7869031511088
 20
-342.1076279526675
 30
0.0
  0
VERTEX
  5
278
330
26D
100
AcDbEntity
  8
Capa 1
 62
   250
420
  1842203
370
    35
100
AcDbVertex
100
AcDb2dVertex
 10
244.7829914752626
 20
-340.1117118832881
 30
0.0
  0
VERTEX
  5
279
330
26D
100
AcDbEntity
  8
Capa 1
 62
   250
420
  1842203
370
    35
100
AcDbVertex
100
AcDb2dVertex
 10
256.2179524099038
 20
-351.5494288943175
 30
0.0
  0
VERTEX
  5
27A
330
26D
100
AcDbEntity
  8
Capa 1
 62
   250
420
  1842203
370
    35
100
AcDbVertex
100
AcDb2dVertex
 10
256.2179524099038
 20
-285.8602429840905
 30
0.0
  0
VERTEX
  5
27B
330
26D
100
AcDbEntity
  8
Capa 1
 62
   250
420
  1842203
370
    35
100
AcDbVertex
100
AcDb2dVertex
 10
259.0401746314205
 20
-288.7107149885862
 30
0.0
  0
VERTEX
  5
27C
330
26D
100
AcDbEntity
  8
Capa 1
 62
   250
420
  1842203
370
    35
100
AcDbVertex
100
AcDb2dVertex
 10
259.0401746314205
 20
-351.5494288943175
 30
0.0
  0
VERTEX
  5
27D
330
26D
100
AcDbEntity
  8
Capa 1
 62
   250
420
  1842203
370
    35
100
AcDbVertex
100
AcDb2dVertex
 10
270.4754800756103
 20
-340.1118841380624
 30
0.0
  0
VERTEX
  5
27E
330
26D
100
AcDbEntity
  8
Capa 1
 62
   250
420
  1842203
370
    35
100
AcDbVertex
100
AcDb2dVertex
 10
272.470879380667
 20
-342.1079724622161
 30
0.0
  0
VERTEX
  5
27F
330
26D
100
AcDbEntity
  8
Capa 1
 62
   250
420
  1842203
370
    35
100
AcDbVertex
100
AcDb2dVertex
 10
261.0359184460257
 20
-353.5453449636969
 30
0.0
  0
VERTEX
  5
280
330
26D
100
AcDbEntity
  8
Capa 1
 62
   250
420
  1842203
370
    35
100
AcDbVertex
100
AcDb2dVertex
 10
297.2740165814975
 20
-353.5453449636969
 30
0.0
  0
VERTEX
  5
281
330
26D
100
AcDbEntity
  8
Capa 1
 62
   250
420
  1842203
370
    35
100
AcDbVertex
100
AcDb2dVertex
 10
297.2888304920841
 20
-356.3679116947622
 30
0.0
  0
VERTEX
  5
282
330
26D
100
AcDbEntity
  8
Capa 1
 62
   250
420
  1842203
370
    35
100
AcDbVertex
100
AcDb2dVertex
 10
261.0355739364772
 20
-356.3679116947622
 30
0.0
  0
VERTEX
  5
283
330
26D
100
AcDbEntity
  8
Capa 1
 62
   250
420
  1842203
370
    35
100
AcDbVertex
100
AcDb2dVertex
 10
272.470879380667
 20
-367.8052841962431
 30
0.0
  0
VERTEX
  5
284
330
26D
100
AcDbEntity
  8
Capa 1
 62
   250
420
  1842203
370
    35
100
AcDbVertex
100
AcDb2dVertex
 10
270.4751355660618
 20
-369.8010280108484
 30
0.0
  0
VERTEX
  5
285
330
26D
100
AcDbEntity
  8
Capa 1
 62
   250
420
  1842203
370
    35
100
AcDbVertex
100
AcDb2dVertex
 10
259.0401746314205
 20
-358.3641722736902
 30
0.0
  0
VERTEX
  5
286
330
26D
100
AcDbEntity
  8
Capa 1
 62
   250
420
  1842203
370
    35
100
AcDbVertex
100
AcDb2dVertex
 10
259.0401746314205
 20
-414.0288193409373
 30
0.0
  0
SEQEND
  5
287
330
26D
100
AcDbEntity
  8
Capa 1
370
    35
  0
ENDBLK
  5
288
330
26B
100
AcDbEntity
  8
0
100
AcDbBlockEnd
  0
BLOCK
  5
28A
330
289
100
AcDbEntity
  8
0
100
AcDbBlockBegin
  2
block 9
 70
     0
 10
0.0
 20
0.0
 30
0.0
  3
block 9
  1

  0
POLYLINE
  5
28B
330
289
100
AcDbEntity
  8
Capa 1
 62
   250
420
  1842203
370
    35
100
AcDb2dPolyline
 66
     1
 10
0.0
 20
0.0
 30
0.0
  0
VERTEX
  5
28C
330
28B
100
AcDbEntity
  8
Capa 1
 62
   250
420
  1842203
370
    35
100
AcDbVertex
100
AcDb2dVertex
 10
607.8936440537557
 20
-381.5720580100759
 30
0.0
  0
VERTEX
  5
28D
330
28B
100
AcDbEntity
  8
Capa 1
 62
   250
420
  1842203
370
    35
100
AcDbVertex
100
AcDb2dVertex
 10
606.4563502173093
 20
-379.017519707763
 30
0.0
  0
VERTEX
  5
28E
330
28B
100
AcDbEntity
  8
Capa 1
 62
   250
420
  1842203
370
    35
100
AcDbVertex
100
AcDb2dVertex
 10
640.7088675698575
 20
-344.6936888786703
 30
0.0
  0
VERTEX
  5
28F
330
28B
100
AcDbEntity
  8
Capa 1
 62
   250
420
  1842203
370
    35
100
AcDbVertex
100
AcDb2dVertex
 10
612.8828313354946
 20
-316.8630017654023
 30
0.0
  0
VERTEX
  5
290
330
28B
100
AcDbEntity
  8
Capa 1
 62
   250
420
  1842203
370
    35
100
AcDbVertex
100
AcDb2dVertex
 10
614.8933890606862
 20
-314.8817273518351
 30
0.0
  0
VERTEX
  5
291
330
28B
100
AcDbEntity
  8
Capa 1
 62
   250
420
  1842203
370
    35
100
AcDbVertex
100
AcDb2dVertex
 10
642.7021998176232
 20
-342.6960502615482
 30
0.0
  0
VERTEX
  5
292
330
28B
100
AcDbEntity
  8
Capa 1
 62
   250
420
  1842203
370
    35
100
AcDbVertex
100
AcDb2dVertex
 10
682.3476696427811
 20
-302.9680703995183
 30
0.0
  0
VERTEX
  5
293
330
28B
100
AcDbEntity
  8
Capa 1
 62
   250
420
  1842203
370
    35
100
AcDbVertex
100
AcDb2dVertex
 10
682.337678865874
 20
-306.9709268438302
 30
0.0
  0
VERTEX
  5
294
330
28B
100
AcDbEntity
  8
Capa 1
 62
   250
420
  1842203
370
    35
100
AcDbVertex
100
AcDb2dVertex
 10
644.6969101035827
 20
-344.6909328022821
 30
0.0
  0
VERTEX
  5
295
330
28B
100
AcDbEntity
  8
Capa 1
 62
   250
420
  1842203
370
    35
100
AcDbVertex
100
AcDb2dVertex
 10
678.7444442747584
 20
-378.7289929608733
 30
0.0
  0
VERTEX
  5
296
330
28B
100
AcDbEntity
  8
Capa 1
 62
   250
420
  1842203
370
    35
100
AcDbVertex
100
AcDb2dVertex
 10
677.2737330121052
 20
-381.2652722571142
 30
0.0
  0
VERTEX
  5
297
330
28B
100
AcDbEntity
  8
Capa 1
 62
   250
420
  1842203
370
    35
100
AcDbVertex
100
AcDb2dVertex
 10
642.7035778558172
 20
-346.6889159289528
 30
0.0
  0
VERTEX
  5
298
330
28B
100
AcDbEntity
  8
Capa 1
 62
   250
420
  1842203
370
    35
100
AcDbVertex
100
AcDb2dVertex
 10
607.8936440537557
 20
-381.5720580100759
 30
0.0
  0
SEQEND
  5
299
330
28B
100
AcDbEntity
  8
Capa 1
370
    35
  0
ENDBLK
  5
29A
330
289
100
AcDbEntity
  8
0
100
AcDbBlockEnd
  0
BLOCK
  5
29C
330
29B
100
AcDbEntity
  8
0
100
AcDbBlockBegin
  2
block 10
 70
     0
 10
0.0
 20
0.0
 30
0.0
  3
block 10
  1

  0
SPLINE
  5
29D
330
29B
100
AcDbEntity
  8
Capa 1
 62
   250
420
  1842203
370
    35
100
AcDbSpline
210
0.0
220
0.0
230
1.0
 70
    11
 71
     3
 72
    77
 73
    73
 74
     0
 42
0.000000001
 43
0.0000000001
 40
0.0
 40
0.0
 40
0.0
 40
0.0
 40
1.0
 40
1.0
 40
1.0
 40
2.0
 40
2.0
 40
2.0
 40
3.0
 40
3.0
 40
3.0
 40
4.0
 40
4.0
 40
4.0
 40
5.0
 40
5.0
 40
5.0
 40
6.0
 40
6.0
 40
6.0
 40
7.0
 40
7.0
 40
7.0
 40
8.0
 40
8.0
 40
8.0
 40
9.0
 40
9.0
 40
9.0
 40
10.0
 40
10.0
 40
10.0
 40
11.0
 40
11.0
 40
11.0
 40
12.0
 40
12.0
 40
12.0
 40
13.0
 40
13.0
 40
13.0
 40
14.0
 40
14.0
 40
14.0
 40
15.0
 40
15.0
 40
15.0
 40
16.0
 40
16.0
 40
16.0
 40
17.0
 40
17.0
 40
17.0
 40
18.0
 40
18.0
 40
18.0
 40
19.0
 40
19.0
 40
19.0
 40
20.0
 40
20.0
 40
20.0
 40
21.0
 40
21.0
 40
21.0
 40
22.0
 40
22.0
 40
22.0
 40
23.0
 40
23.0
 40
23.0
 40
24.0
 40
24.0
 40
24.0
 40
24.0
 10
695.1606687715224
 20
-226.5803127146223
 30
0.0
 10
695.1606687715224
 20
-226.5803127146223
 30
0.0
 10
500.6367972923754
 20
-421.1091795822226
 30
0.0
 10
500.6367972923754
 20
-421.1091795822226
 30
0.0
 10
487.0183348391829
 20
-408.0770723806196
 30
0.0
 10
469.1455239712553
 20
-400.9040390707808
 30
0.0
 10
450.2701903171201
 20
-400.9040390707808
 30
0.0
 10
431.3325004347015
 20
-400.9040390707808
 30
0.0
 10
413.4152478350143
 20
-408.1203083289595
 30
0.0
 10
399.7786986305241
 20
-421.2304469433035
 30
0.0
 10
399.7786986305241
 20
-421.2304469433035
 30
0.0
 10
205.1637043757924
 20
-226.5803127146223
 30
0.0
 10
205.1637043757924
 20
-226.5803127146223
 30
0.0
 10
205.1637043757924
 20
-226.5803127146223
 30
0.0
 10
204.6717447404988
 20
-230.0803574728619
 30
0.0
 10
204.6717447404988
 20
-230.0803574728619
 30
0.0
 10
204.6717447404988
 20
-230.0803574728619
 30
0.0
 10
211.9470973862493
 20
-237.3572604115808
 30
0.0
 10
211.9470973862493
 20
-237.3572604115808
 30
0.0
 10
211.9470973862493
 20
-237.3572604115808
 30
0.0
 10
211.9470973862493
 20
-374.1005071764401
 30
0.0
 10
211.9470973862493
 20
-374.1005071764401
 30
0.0
 10
211.9470973862493
 20
-399.1794242708648
 30
0.0
 10
232.3467135378335
 20
-419.5826577727085
 30
0.0
 10
257.4213242629016
 20
-419.5826577727085
 30
0.0
 10
282.4952459688727
 20
-419.5826577727085
 30
0.0
 10
302.8948621204569
 20
-399.1794242708648
 30
0.0
 10
302.8955511395539
 20
-374.1005071764401
 30
0.0
 10
302.8955511395539
 20
-374.1005071764401
 30
0.0
 10
302.8955511395539
 20
-328.3215616041176
 30
0.0
 10
302.8955511395539
 20
-328.3215616041176
 30
0.0
 10
302.8955511395539
 20
-328.3215616041176
 30
0.0
 10
397.7814045229505
 20
-423.2244682101661
 30
0.0
 10
397.7814045229505
 20
-423.2244682101661
 30
0.0
 10
384.6154553617454
 20
-436.8765203443398
 30
0.0
 10
377.3681802441997
 20
-454.8308077204937
 30
0.0
 10
377.3681802441997
 20
-473.8194850160938
 30
0.0
 10
377.3681802441997
 20
-493.2956433228566
 30
0.0
 10
384.9513521715573
 20
-511.6063258269596
 30
0.0
 10
398.7208820617781
 20
-525.3780950292456
 30
0.0
 10
412.4898951876761
 20
-539.1502087410805
 30
0.0
 10
430.7973048510681
 20
-546.734586451858
 30
0.0
 10
450.2701903171201
 20
-546.734586451858
 30
0.0
 10
469.7435925474946
 20
-546.734586451858
 30
0.0
 10
488.0511744656607
 20
-539.1502087410805
 30
0.0
 10
501.8201875915588
 20
-525.3780950292456
 30
0.0
 10
515.5895452270051
 20
-511.605981317411
 30
0.0
 10
523.1725448995887
 20
-493.2956433228566
 30
0.0
 10
523.1725448995887
 20
-473.8194850160938
 30
0.0
 10
523.1725448995887
 20
-454.7656954158225
 30
0.0
 10
515.8834118718972
 20
-436.7685166008773
 30
0.0
 10
502.6377087502084
 20
-423.0995834988258
 30
0.0
 10
502.6377087502084
 20
-423.0995834988258
 30
0.0
 10
597.1824976805652
 20
-328.5382581101397
 30
0.0
 10
597.1824976805652
 20
-328.5382581101397
 30
0.0
 10
597.1824976805652
 20
-328.5382581101397
 30
0.0
 10
597.1824976805652
 20
-361.9389756039597
 30
0.0
 10
597.1824976805652
 20
-361.9389756039597
 30
0.0
 10
597.1824976805652
 20
-387.0178926983845
 30
0.0
 10
617.5819415773752
 20
-407.4211262002281
 30
0.0
 10
642.6563800476692
 20
-407.4211262002281
 30
0.0
 10
667.7308185179631
 20
-407.4211262002281
 30
0.0
 10
688.1306069243215
 20
-387.0178926983845
 30
0.0
 10
688.1306069243215
 20
-361.9389756039597
 30
0.0
 10
688.1306069243215
 20
-361.9389756039597
 30
0.0
 10
688.1306069243215
 20
-237.573267898506
 30
0.0
 10
688.1306069243215
 20
-237.573267898506
 30
0.0
 10
688.1306069243215
 20
-237.573267898506
 30
0.0
 10
695.6471162540394
 20
-230.0391885818131
 30
0.0
 10
695.6471162540394
 20
-230.0391885818131
 30
0.0
 10
695.6471162540394
 20
-230.0391885818131
 30
0.0
 10
695.1606687715224
 20
-226.5803127146223
 30
0.0
 10
695.1606687715224
 20
-226.5803127146223
 30
0.0
  0
SPLINE
  5
29E
330
29B
100
AcDbEntity
  8
Capa 1
 62
   250
420
  1842203
370
    35
100
AcDbSpline
210
0.0
220
0.0
230
1.0
 70
     9
 71
     3
 72
    20
 73
    16
 74
     0
 42
0.000000001
 43
0.0000000001
 40
0.0
 40
0.0
 40
0.0
 40
0.0
 40
1.0
 40
1.0
 40
1.0
 40
2.0
 40
2.0
 40
2.0
 40
3.0
 40
3.0
 40
3.0
 40
4.0
 40
4.0
 40
4.0
 40
5.0
 40
5.0
 40
5.0
 40
5.0
 10
300.0733289180372
 20
-374.1005071764401
 30
0.0
 10
300.0733289180372
 20
-397.6231023854033
 30
0.0
 10
280.9397853572824
 20
-416.7600910416433
 30
0.0
 10
257.4213242629016
 20
-416.7600910416433
 30
0.0
 10
233.9030354232951
 20
-416.7600910416433
 30
0.0
 10
214.7696641173145
 20
-397.6231023854033
 30
0.0
 10
214.7696641173145
 20
-374.1005071764401
 30
0.0
 10
214.7696641173145
 20
-374.1005071764401
 30
0.0
 10
214.7696641173145
 20
-240.1801716521946
 30
0.0
 10
214.7696641173145
 20
-240.1801716521946
 30
0.0
 10
214.7696641173145
 20
-240.1801716521946
 30
0.0
 10
300.0733289180372
 20
-325.4986503635038
 30
0.0
 10
300.0733289180372
 20
-325.4986503635038
 30
0.0
 10
300.0733289180372
 20
-325.4986503635038
 30
0.0
 10
300.0733289180372
 20
-374.1005071764401
 30
0.0
 10
300.0733289180372
 20
-374.1005071764401
 30
0.0
  0
SPLINE
  5
29F
330
29B
100
AcDbEntity
  8
Capa 1
 62
   250
420
  1842203
370
    35
100
AcDbSpline
210
0.0
220
0.0
230
1.0
 70
     9
 71
     3
 72
    29
 73
    25
 74
     0
 42
0.000000001
 43
0.0000000001
 40
0.0
 40
0.0
 40
0.0
 40
0.0
 40
1.0
 40
1.0
 40
1.0
 40
2.0
 40
2.0
 40
2.0
 40
3.0
 40
3.0
 40
3.0
 40
4.0
 40
4.0
 40
4.0
 40
5.0
 40
5.0
 40
5.0
 40
6.0
 40
6.0
 40
6.0
 40
7.0
 40
7.0
 40
7.0
 40
8.0
 40
8.0
 40
8.0
 40
8.0
 10
520.3506671876207
 20
-473.8194850160938
 30
0.0
 10
520.3506671876207
 20
-492.5415119211355
 30
0.0
 10
513.0608451408319
 20
-510.143193774374
 30
0.0
 10
499.8244437769536
 20
-523.3823512146405
 30
0.0
 10
486.5880424130751
 20
-536.6215086549072
 30
0.0
 10
468.9894611457734
 20
-543.9123642303413
 30
0.0
 10
450.2701903171201
 20
-543.9123642303413
 30
0.0
 10
431.5512639980148
 20
-543.9123642303413
 30
0.0
 10
413.9528549854875
 20
-536.6215086549072
 30
0.0
 10
400.7166258763834
 20
-523.3823512146405
 30
0.0
 10
387.4800522577307
 20
-510.1435382839225
 30
0.0
 10
380.1904024657163
 20
-492.5418564306839
 30
0.0
 10
380.1904024657163
 20
-473.8194850160938
 30
0.0
 10
380.1904024657163
 20
-455.0971136015035
 30
0.0
 10
387.4800522577307
 20
-437.4952594934908
 30
0.0
 10
400.7166258763834
 20
-424.2562743079985
 30
0.0
 10
413.952510475939
 20
-411.0176336320545
 30
0.0
 10
431.5509194884663
 20
-403.7269503113946
 30
0.0
 10
450.2701903171201
 20
-403.7269503113946
 30
0.0
 10
468.989805655322
 20
-403.7269503113946
 30
0.0
 10
486.5883869226238
 20
-411.0176336320545
 30
0.0
 10
499.8244437769536
 20
-424.2562743079985
 30
0.0
 10
513.0608451408319
 20
-437.4956040030393
 30
0.0
 10
520.3506671876207
 20
-455.0974581110518
 30
0.0
 10
520.3506671876207
 20
-473.8194850160938
 30
0.0
  0
SPLINE
  5
2A0
330
29B
100
AcDbEntity
  8
Capa 1
 62
   250
420
  1842203
370
    35
100
AcDbSpline
210
0.0
220
0.0
230
1.0
 70
     9
 71
     3
 72
    20
 73
    16
 74
     0
 42
0.000000001
 43
0.0000000001
 40
0.0
 40
0.0
 40
0.0
 40
0.0
 40
1.0
 40
1.0
 40
1.0
 40
2.0
 40
2.0
 40
2.0
 40
3.0
 40
3.0
 40
3.0
 40
4.0
 40
4.0
 40
4.0
 40
5.0
 40
5.0
 40
5.0
 40
5.0
 10
685.3083847028049
 20
-361.9389756039597
 30
0.0
 10
685.3083847028049
 20
-385.4615708129228
 30
0.0
 10
666.1746688872757
 20
-404.5985594691629
 30
0.0
 10
642.6563800476692
 20
-404.5985594691629
 30
0.0
 10
619.1384357176112
 20
-404.5985594691629
 30
0.0
 10
600.0047199020822
 20
-385.4615708129228
 30
0.0
 10
600.0043753925337
 20
-361.9389756039597
 30
0.0
 10
600.0043753925337
 20
-361.9389756039597
 30
0.0
 10
600.0043753925337
 20
-325.7153468695261
 30
0.0
 10
600.0043753925337
 20
-325.7153468695261
 30
0.0
 10
600.0043753925337
 20
-325.7153468695261
 30
0.0
 10
685.3083847028049
 20
-240.3961791391197
 30
0.0
 10
685.3083847028049
 20
-240.3961791391197
 30
0.0
 10
685.3083847028049
 20
-240.3961791391197
 30
0.0
 10
685.3083847028049
 20
-361.9389756039597
 30
0.0
 10
685.3083847028049
 20
-361.9389756039597
 30
0.0
  0
ENDBLK
  5
2A1
330
29B
100
AcDbEntity
  8
0
100
AcDbBlockEnd
  0
BLOCK
  5
2A3
330
2A2
100
AcDbEntity
  8
0
100
AcDbBlockBegin
  2
block 11
 70
     0
 10
0.0
 20
0.0
 30
0.0
  3
block 11
  1

  0
SPLINE
  5
2A4
330
2A2
100
AcDbEntity
  8
Capa 1
 62
   250
420
  1842203
370
    35
100
AcDbSpline
210
0.0
220
0.0
230
1.0
 70
    11
 71
     3
 72
    59
 73
    55
 74
     0
 42
0.000000001
 43
0.0000000001
 40
0.0
 40
0.0
 40
0.0
 40
0.0
 40
1.0
 40
1.0
 40
1.0
 40
2.0
 40
2.0
 40
2.0
 40
3.0
 40
3.0
 40
3.0
 40
4.0
 40
4.0
 40
4.0
 40
5.0
 40
5.0
 40
5.0
 40
6.0
 40
6.0
 40
6.0
 40
7.0
 40
7.0
 40
7.0
 40
8.0
 40
8.0
 40
8.0
 40
9.0
 40
9.0
 40
9.0
 40
10.0
 40
10.0
 40
10.0
 40
11.0
 40
11.0
 40
11.0
 40
12.0
 40
12.0
 40
12.0
 40
13.0
 40
13.0
 40
13.0
 40
14.0
 40
14.0
 40
14.0
 40
15.0
 40
15.0
 40
15.0
 40
16.0
 40
16.0
 40
16.0
 40
17.0
 40
17.0
 40
17.0
 40
18.0
 40
18.0
 40
18.0
 40
18.0
 10
179.6963527654058
 20
-706.9838919673513
 30
0.0
 10
179.6963527654058
 20
-706.9838919673513
 30
0.0
 10
179.0922552720672
 20
-704.0800209828343
 30
0.0
 10
179.0922552720672
 20
-704.0800209828343
 30
0.0
 10
179.0922552720672
 20
-704.0800209828343
 30
0.0
 10
326.1108438312327
 20
-619.2690048365022
 30
0.0
 10
326.1108438312327
 20
-619.2690048365022
 30
0.0
 10
336.7825438611169
 20
-613.1126192043607
 30
0.0
 10
344.4189425137217
 20
-603.1680065766386
 30
0.0
 10
347.6135795571938
 20
-591.2672687323917
 30
0.0
 10
350.8083888554403
 20
-579.3658418690474
 30
0.0
 10
349.1778251622715
 20
-566.9321477532322
 30
0.0
 10
343.0226453135499
 20
-556.2568303730886
 30
0.0
 10
336.8674654648283
 20
-545.5818575024933
 30
0.0
 10
326.9242308753002
 20
-537.9427027735005
 30
0.0
 10
315.0245265596988
 20
-534.7473767109311
 30
0.0
 10
311.0755858597311
 20
-533.6869763205712
 30
0.0
 10
307.0258761168199
 20
-533.1491969153238
 30
0.0
 10
302.9880519533329
 20
-533.1491969153238
 30
0.0
 10
294.9823390647093
 20
-533.1491969153238
 30
0.0
 10
287.0400159330143
 20
-535.2896347403095
 30
0.0
 10
280.0196003531722
 20
-539.3389999736722
 30
0.0
 10
280.0196003531722
 20
-539.3389999736722
 30
0.0
 10
158.3171237125909
 20
-609.5455673389331
 30
0.0
 10
158.3171237125909
 20
-609.5455673389331
 30
0.0
 10
158.3171237125909
 20
-609.5455673389331
 30
0.0
 10
156.3894205338193
 20
-607.3965167752342
 30
0.0
 10
156.3894205338193
 20
-607.3965167752342
 30
0.0
 10
156.3894205338193
 20
-607.3965167752342
 30
0.0
 10
278.947831147711
 20
-536.7010903606161
 30
0.0
 10
278.947831147711
 20
-536.7010903606161
 30
0.0
 10
286.3406615495086
 20
-532.4364066594256
 30
0.0
 10
294.3474079667776
 20
-530.2742647328829
 30
0.0
 10
302.7456894859455
 20
-530.2742647328829
 30
0.0
 10
307.0622218741893
 20
-530.2742647328829
 30
0.0
 10
311.4395601977478
 20
-530.8619980226665
 30
0.0
 10
315.7562648407658
 20
-532.021272653453
 30
0.0
 10
328.3842623419491
 20
-535.4122801395845
 30
0.0
 10
338.9359007941723
 20
-543.5185898163773
 30
0.0
 10
345.4672850698832
 20
-554.8470973005244
 30
0.0
 10
351.9995306194654
 20
-566.1756047846712
 30
0.0
 10
353.7296575721579
 20
-579.3699759836297
 30
0.0
 10
350.338994595575
 20
-592.0000405421042
 30
0.0
 10
346.9991467773995
 20
-604.4423473966324
 30
0.0
 10
339.0766329447447
 20
-614.8761635832601
 30
0.0
 10
328.0066798767657
 20
-621.4290797057539
 30
0.0
 10
328.0066798767657
 20
-621.4290797057539
 30
0.0
 10
328.0078856601855
 20
-621.4301132343993
 30
0.0
 10
328.0078856601855
 20
-621.4301132343993
 30
0.0
 10
328.0078856601855
 20
-621.4301132343993
 30
0.0
 10
327.4365165739569
 20
-621.7625649487261
 30
0.0
 10
327.4365165739569
 20
-621.7625649487261
 30
0.0
 10
327.4365165739569
 20
-621.7625649487261
 30
0.0
 10
179.6963527654058
 20
-706.9838919673513
 30
0.0
 10
179.6963527654058
 20
-706.9838919673513
 30
0.0
  0
ENDBLK
  5
2A5
330
2A2
100
AcDbEntity
  8
0
100
AcDbBlockEnd
  0
BLOCK
  5
2A7
330
2A6
100
AcDbEntity
  8
0
100
AcDbBlockBegin
  2
block 12
 70
     0
 10
0.0
 20
0.0
 30
0.0
  3
block 12
  1

  0
POLYLINE
  5
2A8
330
2A6
100
AcDbEntity
  8
Capa 1
 62
   250
420
  1842203
370
    35
100
AcDb2dPolyline
 66
     1
 10
0.0
 20
0.0
 30
0.0
  0
VERTEX
  5
2A9
330
2A8
100
AcDbEntity
  8
Capa 1
 62
   250
420
  1842203
370
    35
100
AcDbVertex
100
AcDb2dVertex
 10
172.3694959421506
 20
-656.2093856866421
 30
0.0
  0
VERTEX
  5
2AA
330
2A8
100
AcDbEntity
  8
Capa 1
 62
   250
420
  1842203
370
    35
100
AcDbVertex
100
AcDb2dVertex
 10
172.1114582903054
 20
-653.1001870112041
 30
0.0
  0
VERTEX
  5
2AB
330
2A8
100
AcDbEntity
  8
Capa 1
 62
   250
420
  1842203
370
    35
100
AcDbVertex
100
AcDb2dVertex
 10
339.5506780835152
 20
-556.5224472350013
 30
0.0
  0
VERTEX
  5
2AC
330
2A8
100
AcDbEntity
  8
Capa 1
 62
   250
420
  1842203
370
    35
100
AcDbVertex
100
AcDb2dVertex
 10
340.970057423438
 20
-558.9615748385582
 30
0.0
  0
VERTEX
  5
2AD
330
2A8
100
AcDbEntity
  8
Capa 1
 62
   250
420
  1842203
370
    35
100
AcDbVertex
100
AcDb2dVertex
 10
340.6632716704765
 20
-559.1386527465
 30
0.0
  0
VERTEX
  5
2AE
330
2A8
100
AcDbEntity
  8
Capa 1
 62
   250
420
  1842203
370
    35
100
AcDbVertex
100
AcDb2dVertex
 10
172.3694959421506
 20
-656.2093856866421
 30
0.0
  0
SEQEND
  5
2AF
330
2A8
100
AcDbEntity
  8
Capa 1
370
    35
  0
ENDBLK
  5
2B0
330
2A6
100
AcDbEntity
  8
0
100
AcDbBlockEnd
  0
BLOCK
  5
2B2
330
2B1
100
AcDbEntity
  8
0
100
AcDbBlockBegin
  2
block 13
 70
     0
 10
0.0
 20
0.0
 30
0.0
  3
block 13
  1

  0
POLYLINE
  5
2B3
330
2B1
100
AcDbEntity
  8
Capa 1
 62
   250
420
  1842203
370
    35
100
AcDb2dPolyline
 66
     1
 10
0.0
 20
0.0
 30
0.0
  0
VERTEX
  5
2B4
330
2B3
100
AcDbEntity
  8
Capa 1
 62
   250
420
  1842203
370
    35
100
AcDbVertex
100
AcDb2dVertex
 10
171.043478689878
 20
-638.6890080868556
 30
0.0
  0
VERTEX
  5
2B5
330
2B3
100
AcDbEntity
  8
Capa 1
 62
   250
420
  1842203
370
    35
100
AcDbVertex
100
AcDb2dVertex
 10
170.6023342129918
 20
-635.6848848237177
 30
0.0
  0
VERTEX
  5
2B6
330
2B3
100
AcDbEntity
  8
Capa 1
 62
   250
420
  1842203
370
    35
100
AcDbVertex
100
AcDb2dVertex
 10
328.713613470339
 20
-544.4876951763781
 30
0.0
  0
VERTEX
  5
2B7
330
2B3
100
AcDbEntity
  8
Capa 1
 62
   250
420
  1842203
370
    35
100
AcDbVertex
100
AcDb2dVertex
 10
331.0052909871272
 20
-546.4238388390882
 30
0.0
  0
VERTEX
  5
2B8
330
2B3
100
AcDbEntity
  8
Capa 1
 62
   250
420
  1842203
370
    35
100
AcDbVertex
100
AcDb2dVertex
 10
171.043478689878
 20
-638.6890080868556
 30
0.0
  0
SEQEND
  5
2B9
330
2B3
100
AcDbEntity
  8
Capa 1
370
    35
  0
ENDBLK
  5
2BA
330
2B1
100
AcDbEntity
  8
0
100
AcDbBlockEnd
  0
BLOCK
  5
2BC
330
2BB
100
AcDbEntity
  8
0
100
AcDbBlockBegin
  2
block 14
 70
     0
 10
0.0
 20
0.0
 30
0.0
  3
block 14
  1

  0
POLYLINE
  5
2BD
330
2BB
100
AcDbEntity
  8
Capa 1
 62
   250
420
  1842203
370
    35
100
AcDb2dPolyline
 66
     1
 10
0.0
 20
0.0
 30
0.0
  0
VERTEX
  5
2BE
330
2BD
100
AcDbEntity
  8
Capa 1
 62
   250
420
  1842203
370
    35
100
AcDbVertex
100
AcDb2dVertex
 10
166.7822400841725
 20
-623.0592988893741
 30
0.0
  0
VERTEX
  5
2BF
330
2BD
100
AcDbEntity
  8
Capa 1
 62
   250
420
  1842203
370
    35
100
AcDbVertex
100
AcDb2dVertex
 10
165.5833468553056
 20
-620.5116507780318
 30
0.0
  0
VERTEX
  5
2C0
330
2BD
100
AcDbEntity
  8
Capa 1
 62
   250
420
  1842203
370
    35
100
AcDbVertex
100
AcDb2dVertex
 10
311.0357950068765
 20
-536.5901582859914
 30
0.0
  0
VERTEX
  5
2C1
330
2BD
100
AcDbEntity
  8
Capa 1
 62
   250
420
  1842203
370
    35
100
AcDbVertex
100
AcDb2dVertex
 10
315.0245265596988
 20
-537.5478948308908
 30
0.0
  0
VERTEX
  5
2C2
330
2BD
100
AcDbEntity
  8
Capa 1
 62
   250
420
  1842203
370
    35
100
AcDbVertex
100
AcDb2dVertex
 10
166.7822400841725
 20
-623.0592988893741
 30
0.0
  0
SEQEND
  5
2C3
330
2BD
100
AcDbEntity
  8
Capa 1
370
    35
  0
ENDBLK
  5
2C4
330
2BB
100
AcDbEntity
  8
0
100
AcDbBlockEnd
  0
BLOCK
  5
2C6
330
2C5
100
AcDbEntity
  8
0
100
AcDbBlockBegin
  2
block 15
 70
     0
 10
0.0
 20
0.0
 30
0.0
  3
block 15
  1

  0
POLYLINE
  5
2C7
330
2C5
100
AcDbEntity
  8
Capa 1
 62
   250
420
  1842203
370
    35
100
AcDb2dPolyline
 66
     1
 10
0.0
 20
0.0
 30
0.0
  0
VERTEX
  5
2C8
330
2C7
100
AcDbEntity
  8
Capa 1
 62
   250
420
  1842203
370
    35
100
AcDbVertex
100
AcDb2dVertex
 10
176.5785413512547
 20
-690.3833548621263
 30
0.0
  0
VERTEX
  5
2C9
330
2C7
100
AcDbEntity
  8
Capa 1
 62
   250
420
  1842203
370
    35
100
AcDbVertex
100
AcDb2dVertex
 10
176.1001898431277
 20
-687.4009357005458
 30
0.0
  0
VERTEX
  5
2CA
330
2C7
100
AcDbEntity
  8
Capa 1
 62
   250
420
  1842203
370
    35
100
AcDbVertex
100
AcDb2dVertex
 10
344.2578842997862
 20
-590.4080619183702
 30
0.0
  0
VERTEX
  5
2CB
330
2C7
100
AcDbEntity
  8
Capa 1
 62
   250
420
  1842203
370
    35
100
AcDbVertex
100
AcDb2dVertex
 10
343.0080036577376
 20
-594.3874917133824
 30
0.0
  0
VERTEX
  5
2CC
330
2C7
100
AcDbEntity
  8
Capa 1
 62
   250
420
  1842203
370
    35
100
AcDbVertex
100
AcDb2dVertex
 10
342.8888033539479
 20
-594.4560491135387
 30
0.0
  0
VERTEX
  5
2CD
330
2C7
100
AcDbEntity
  8
Capa 1
 62
   250
420
  1842203
370
    35
100
AcDbVertex
100
AcDb2dVertex
 10
176.5785413512547
 20
-690.3833548621263
 30
0.0
  0
SEQEND
  5
2CE
330
2C7
100
AcDbEntity
  8
Capa 1
370
    35
  0
ENDBLK
  5
2CF
330
2C5
100
AcDbEntity
  8
0
100
AcDbBlockEnd
  0
BLOCK
  5
2D1
330
2D0
100
AcDbEntity
  8
0
100
AcDbBlockBegin
  2
block 16
 70
     0
 10
0.0
 20
0.0
 30
0.0
  3
block 16
  1

  0
POLYLINE
  5
2D2
330
2D0
100
AcDbEntity
  8
Capa 1
 62
   250
420
  1842203
370
    35
100
AcDb2dPolyline
 66
     1
 10
0.0
 20
0.0
 30
0.0
  0
VERTEX
  5
2D3
330
2D2
100
AcDbEntity
  8
Capa 1
 62
   250
420
  1842203
370
    35
100
AcDbVertex
100
AcDb2dVertex
 10
174.2086601669513
 20
-673.8537867238977
 30
0.0
  0
VERTEX
  5
2D4
330
2D2
100
AcDbEntity
  8
Capa 1
 62
   250
420
  1842203
370
    35
100
AcDbVertex
100
AcDb2dVertex
 10
173.8216036891835
 20
-670.6222871587332
 30
0.0
  0
VERTEX
  5
2D5
330
2D2
100
AcDbEntity
  8
Capa 1
 62
   250
420
  1842203
370
    35
100
AcDbVertex
100
AcDb2dVertex
 10
345.3687553390051
 20
-571.6767332555182
 30
0.0
  0
VERTEX
  5
2D6
330
2D2
100
AcDbEntity
  8
Capa 1
 62
   250
420
  1842203
370
    35
100
AcDbVertex
100
AcDb2dVertex
 10
345.8691554582376
 20
-574.6457165447066
 30
0.0
  0
VERTEX
  5
2D7
330
2D2
100
AcDbEntity
  8
Capa 1
 62
   250
420
  1842203
370
    35
100
AcDbVertex
100
AcDb2dVertex
 10
174.2086601669513
 20
-673.8537867238977
 30
0.0
  0
SEQEND
  5
2D8
330
2D2
100
AcDbEntity
  8
Capa 1
370
    35
  0
ENDBLK
  5
2D9
330
2D0
100
AcDbEntity
  8
0
100
AcDbBlockEnd
  0
BLOCK
  5
2DB
330
2DA
100
AcDbEntity
  8
0
100
AcDbBlockBegin
  2
block 17
 70
     0
 10
0.0
 20
0.0
 30
0.0
  3
block 17
  1

  0
SPLINE
  5
2DC
330
2DA
100
AcDbEntity
  8
Capa 1
 62
   250
420
  1842203
370
    35
100
AcDbSpline
210
0.0
220
0.0
230
1.0
 70
     9
 71
     3
 72
    47
 73
    43
 74
     0
 42
0.000000001
 43
0.0000000001
 40
0.0
 40
0.0
 40
0.0
 40
0.0
 40
1.0
 40
1.0
 40
1.0
 40
2.0
 40
2.0
 40
2.0
 40
3.0
 40
3.0
 40
3.0
 40
4.0
 40
4.0
 40
4.0
 40
5.0
 40
5.0
 40
5.0
 40
6.0
 40
6.0
 40
6.0
 40
7.0
 40
7.0
 40
7.0
 40
8.0
 40
8.0
 40
8.0
 40
9.0
 40
9.0
 40
9.0
 40
10.0
 40
10.0
 40
10.0
 40
11.0
 40
11.0
 40
11.0
 40
12.0
 40
12.0
 40
12.0
 40
13.0
 40
13.0
 40
13.0
 40
14.0
 40
14.0
 40
14.0
 40
14.0
 10
585.2745251357994
 20
-534.743931615446
 30
0.0
 10
589.2229490714441
 20
-533.6835312250861
 30
0.0
 10
593.2723143048067
 20
-533.1457518198386
 30
0.0
 10
597.3099662135195
 20
-533.1457518198386
 30
0.0
 10
605.3153345925948
 20
-533.1457518198386
 30
0.0
 10
613.2580022338382
 20
-535.2865341543727
 30
0.0
 10
620.2791068327775
 20
-539.3358993877352
 30
0.0
 10
620.2791068327775
 20
-539.3358993877352
 30
0.0
 10
742.0594426313254
 20
-609.552113020355
 30
0.0
 10
742.0594426313254
 20
-609.552113020355
 30
0.0
 10
742.0594426313254
 20
-609.552113020355
 30
0.0
 10
743.9621688678287
 20
-607.4168428385973
 30
0.0
 10
743.9621688678287
 20
-607.4168428385973
 30
0.0
 10
743.9621688678287
 20
-607.4168428385973
 30
0.0
 10
621.6891844148902
 20
-536.8909151218537
 30
0.0
 10
621.6891844148902
 20
-536.8909151218537
 30
0.0
 10
614.239509937586
 20
-532.5941920326502
 30
0.0
 10
605.8107393233736
 20
-530.3228405792248
 30
0.0
 10
597.3137558185534
 20
-530.3228405792248
 30
0.0
 10
593.0290905635482
 20
-530.3228405792248
 30
0.0
 10
588.7323674743448
 20
-530.8933483915819
 30
0.0
 10
584.5424423451837
 20
-532.0181720675162
 30
0.0
 10
571.9151338630974
 20
-535.4088350440989
 30
0.0
 10
561.3634954108744
 20
-543.515144720892
 30
0.0
 10
554.8319388803893
 20
-554.8436522050391
 30
0.0
 10
541.3478351511213
 20
-578.2286158493665
 30
0.0
 10
549.4000568287957
 20
-608.2260957680822
 30
0.0
 10
572.7815753776377
 20
-621.7129555737384
 30
0.0
 10
572.7815753776377
 20
-621.7129555737384
 30
0.0
 10
720.6254365602948
 20
-706.9973278397437
 30
0.0
 10
720.6254365602948
 20
-706.9973278397437
 30
0.0
 10
720.6254365602948
 20
-706.9973278397437
 30
0.0
 10
721.2348739516357
 20
-704.0672741295387
 30
0.0
 10
721.2348739516357
 20
-704.0672741295387
 30
0.0
 10
721.2348739516357
 20
-704.0672741295387
 30
0.0
 10
574.1916529597507
 20
-619.2676267983081
 30
0.0
 10
574.1916529597507
 20
-619.2676267983081
 30
0.0
 10
552.1582002742868
 20
-606.5586695532212
 30
0.0
 10
544.5703774680239
 20
-578.2909720776492
 30
0.0
 10
557.2762341271738
 20
-556.2533852776033
 30
0.0
 10
563.43158623067
 20
-545.5780678974596
 30
0.0
 10
573.3751653297466
 20
-537.9392576780152
 30
0.0
 10
585.2745251357994
 20
-534.743931615446
 30
0.0
  0
ENDBLK
  5
2DD
330
2DA
100
AcDbEntity
  8
0
100
AcDbBlockEnd
  0
BLOCK
  5
2DF
330
2DE
100
AcDbEntity
  8
0
100
AcDbBlockBegin
  2
block 18
 70
     0
 10
0.0
 20
0.0
 30
0.0
  3
block 18
  1

  0
POLYLINE
  5
2E0
330
2DE
100
AcDbEntity
  8
Capa 1
 62
   250
420
  1842203
370
    35
100
AcDb2dPolyline
 66
     1
 10
0.0
 20
0.0
 30
0.0
  0
VERTEX
  5
2E1
330
2E0
100
AcDbEntity
  8
Capa 1
 62
   250
420
  1842203
370
    35
100
AcDbVertex
100
AcDb2dVertex
 10
727.9907061982108
 20
-655.7935626615723
 30
0.0
  0
VERTEX
  5
2E2
330
2E0
100
AcDbEntity
  8
Capa 1
 62
   250
420
  1842203
370
    35
100
AcDbVertex
100
AcDb2dVertex
 10
559.6512829547051
 20
-558.731786969692
 30
0.0
  0
VERTEX
  5
2E3
330
2E0
100
AcDbEntity
  8
Capa 1
 62
   250
420
  1842203
370
    35
100
AcDbVertex
100
AcDb2dVertex
 10
561.0710068041766
 20
-556.2926593661351
 30
0.0
  0
VERTEX
  5
2E4
330
2E0
100
AcDbEntity
  8
Capa 1
 62
   250
420
  1842203
370
    35
100
AcDbVertex
100
AcDb2dVertex
 10
561.3752087355243
 20
-556.4680147263343
 30
0.0
  0
VERTEX
  5
2E5
330
2E0
100
AcDbEntity
  8
Capa 1
 62
   250
420
  1842203
370
    35
100
AcDbVertex
100
AcDb2dVertex
 10
728.2466767927648
 20
-652.6802298715522
 30
0.0
  0
VERTEX
  5
2E6
330
2E0
100
AcDbEntity
  8
Capa 1
 62
   250
420
  1842203
370
    35
100
AcDbVertex
100
AcDb2dVertex
 10
727.9907061982108
 20
-655.7935626615723
 30
0.0
  0
SEQEND
  5
2E7
330
2E0
100
AcDbEntity
  8
Capa 1
370
    35
  0
ENDBLK
  5
2E8
330
2DE
100
AcDbEntity
  8
0
100
AcDbBlockEnd
  0
BLOCK
  5
2EA
330
2E9
100
AcDbEntity
  8
0
100
AcDbBlockBegin
  2
block 19
 70
     0
 10
0.0
 20
0.0
 30
0.0
  3
block 19
  1

  0
POLYLINE
  5
2EB
330
2E9
100
AcDbEntity
  8
Capa 1
 62
   250
420
  1842203
370
    35
100
AcDb2dPolyline
 66
     1
 10
0.0
 20
0.0
 30
0.0
  0
VERTEX
  5
2EC
330
2EB
100
AcDbEntity
  8
Capa 1
 62
   250
420
  1842203
370
    35
100
AcDbVertex
100
AcDb2dVertex
 10
729.3522079339813
 20
-638.1150551790129
 30
0.0
  0
VERTEX
  5
2ED
330
2EB
100
AcDbEntity
  8
Capa 1
 62
   250
420
  1842203
370
    35
100
AcDbVertex
100
AcDb2dVertex
 10
569.9686549139312
 20
-546.1937064606738
 30
0.0
  0
VERTEX
  5
2EE
330
2EB
100
AcDbEntity
  8
Capa 1
 62
   250
420
  1842203
370
    35
100
AcDbVertex
100
AcDb2dVertex
 10
572.2610214498168
 20
-544.2575627979634
 30
0.0
  0
VERTEX
  5
2EF
330
2EB
100
AcDbEntity
  8
Capa 1
 62
   250
420
  1842203
370
    35
100
AcDbVertex
100
AcDb2dVertex
 10
572.4756508985477
 20
-544.3812417258839
 30
0.0
  0
VERTEX
  5
2F0
330
2EB
100
AcDbEntity
  8
Capa 1
 62
   250
420
  1842203
370
    35
100
AcDbVertex
100
AcDb2dVertex
 10
729.8169513149415
 20
-635.1601967813142
 30
0.0
  0
VERTEX
  5
2F1
330
2EB
100
AcDbEntity
  8
Capa 1
 62
   250
420
  1842203
370
    35
100
AcDbVertex
100
AcDb2dVertex
 10
729.3522079339813
 20
-638.1150551790129
 30
0.0
  0
SEQEND
  5
2F2
330
2EB
100
AcDbEntity
  8
Capa 1
370
    35
  0
ENDBLK
  5
2F3
330
2E9
100
AcDbEntity
  8
0
100
AcDbBlockEnd
  0
BLOCK
  5
2F5
330
2F4
100
AcDbEntity
  8
0
100
AcDbBlockBegin
  2
block 20
 70
     0
 10
0.0
 20
0.0
 30
0.0
  3
block 20
  1

  0
POLYLINE
  5
2F6
330
2F4
100
AcDbEntity
  8
Capa 1
 62
   250
420
  1842203
370
    35
100
AcDb2dPolyline
 66
     1
 10
0.0
 20
0.0
 30
0.0
  0
VERTEX
  5
2F7
330
2F6
100
AcDbEntity
  8
Capa 1
 62
   250
420
  1842203
370
    35
100
AcDbVertex
100
AcDb2dVertex
 10
733.5638371646994
 20
-623.0103785334835
 30
0.0
  0
VERTEX
  5
2F8
330
2F6
100
AcDbEntity
  8
Capa 1
 62
   250
420
  1842203
370
    35
100
AcDbVertex
100
AcDb2dVertex
 10
585.0650633302961
 20
-537.3635822224298
 30
0.0
  0
VERTEX
  5
2F9
330
2F6
100
AcDbEntity
  8
Capa 1
 62
   250
420
  1842203
370
    35
100
AcDbVertex
100
AcDb2dVertex
 10
588.8377873961932
 20
-536.2811332209643
 30
0.0
  0
VERTEX
  5
2FA
330
2F6
100
AcDbEntity
  8
Capa 1
 62
   250
420
  1842203
370
    35
100
AcDbVertex
100
AcDb2dVertex
 10
588.9673229864387
 20
-536.3558917929942
 30
0.0
  0
VERTEX
  5
2FB
330
2F6
100
AcDbEntity
  8
Capa 1
 62
   250
420
  1842203
370
    35
100
AcDbVertex
100
AcDb2dVertex
 10
734.6593775290088
 20
-620.3280271886677
 30
0.0
  0
VERTEX
  5
2FC
330
2F6
100
AcDbEntity
  8
Capa 1
 62
   250
420
  1842203
370
    35
100
AcDbVertex
100
AcDb2dVertex
 10
733.5638371646994
 20
-623.0103785334835
 30
0.0
  0
SEQEND
  5
2FD
330
2F6
100
AcDbEntity
  8
Capa 1
370
    35
  0
ENDBLK
  5
2FE
330
2F4
100
AcDbEntity
  8
0
100
AcDbBlockEnd
  0
BLOCK
  5
300
330
2FF
100
AcDbEntity
  8
0
100
AcDbBlockBegin
  2
block 21
 70
     0
 10
0.0
 20
0.0
 30
0.0
  3
block 21
  1

  0
POLYLINE
  5
301
330
2FF
100
AcDbEntity
  8
Capa 1
 62
   250
420
  1842203
370
    35
100
AcDb2dPolyline
 66
     1
 10
0.0
 20
0.0
 30
0.0
  0
VERTEX
  5
302
330
301
100
AcDbEntity
  8
Capa 1
 62
   250
420
  1842203
370
    35
100
AcDbVertex
100
AcDb2dVertex
 10
723.7263670065685
 20
-690.5042777136587
 30
0.0
  0
VERTEX
  5
303
330
301
100
AcDbEntity
  8
Capa 1
 62
   250
420
  1842203
370
    35
100
AcDbVertex
100
AcDb2dVertex
 10
557.2607311974904
 20
-594.5101371126573
 30
0.0
  0
VERTEX
  5
304
330
301
100
AcDbEntity
  8
Capa 1
 62
   250
420
  1842203
370
    35
100
AcDbVertex
100
AcDb2dVertex
 10
556.0115395745388
 20
-590.5307073176451
 30
0.0
  0
VERTEX
  5
305
330
301
100
AcDbEntity
  8
Capa 1
 62
   250
420
  1842203
370
    35
100
AcDbVertex
100
AcDb2dVertex
 10
724.2007566548871
 20
-687.5528644114453
 30
0.0
  0
VERTEX
  5
306
330
301
100
AcDbEntity
  8
Capa 1
 62
   250
420
  1842203
370
    35
100
AcDbVertex
100
AcDb2dVertex
 10
723.7263670065685
 20
-690.5042777136587
 30
0.0
  0
SEQEND
  5
307
330
301
100
AcDbEntity
  8
Capa 1
370
    35
  0
ENDBLK
  5
308
330
2FF
100
AcDbEntity
  8
0
100
AcDbBlockEnd
  0
BLOCK
  5
30A
330
309
100
AcDbEntity
  8
0
100
AcDbBlockBegin
  2
block 22
 70
     0
 10
0.0
 20
0.0
 30
0.0
  3
block 22
  1

  0
POLYLINE
  5
30B
330
309
100
AcDbEntity
  8
Capa 1
 62
   250
420
  1842203
370
    35
100
AcDb2dPolyline
 66
     1
 10
0.0
 20
0.0
 30
0.0
  0
VERTEX
  5
30C
330
30B
100
AcDbEntity
  8
Capa 1
 62
   250
420
  1842203
370
    35
100
AcDbVertex
100
AcDb2dVertex
 10
726.1393118844376
 20
-673.6646509817575
 30
0.0
  0
VERTEX
  5
30D
330
30B
100
AcDbEntity
  8
Capa 1
 62
   250
420
  1842203
370
    35
100
AcDbVertex
100
AcDb2dVertex
 10
554.9001517709971
 20
-574.7018716011162
 30
0.0
  0
VERTEX
  5
30E
330
30B
100
AcDbEntity
  8
Capa 1
 62
   250
420
  1842203
370
    35
100
AcDbVertex
100
AcDb2dVertex
 10
555.2973712804466
 20
-571.6729436504845
 30
0.0
  0
VERTEX
  5
30F
330
30B
100
AcDbEntity
  8
Capa 1
 62
   250
420
  1842203
370
    35
100
AcDbVertex
100
AcDb2dVertex
 10
726.5248180692367
 20
-670.4348739643357
 30
0.0
  0
VERTEX
  5
310
330
30B
100
AcDbEntity
  8
Capa 1
 62
   250
420
  1842203
370
    35
100
AcDbVertex
100
AcDb2dVertex
 10
726.1393118844376
 20
-673.6646509817575
 30
0.0
  0
SEQEND
  5
311
330
30B
100
AcDbEntity
  8
Capa 1
370
    35
  0
ENDBLK
  5
312
330
309
100
AcDbEntity
  8
0
100
AcDbBlockEnd
  0
BLOCK
  5
314
330
313
100
AcDbEntity
  8
0
100
AcDbBlockBegin
  2
block 23
 70
     0
 10
0.0
 20
0.0
 30
0.0
  3
block 23
  1

  0
SPLINE
  5
315
330
313
100
AcDbEntity
  8
Capa 1
 62
   250
420
  1842203
370
    35
100
AcDbSpline
210
0.0
220
0.0
230
1.0
 70
    11
 71
     3
 72
    47
 73
    43
 74
     0
 42
0.000000001
 43
0.0000000001
 40
0.0
 40
0.0
 40
0.0
 40
0.0
 40
1.0
 40
1.0
 40
1.0
 40
2.0
 40
2.0
 40
2.0
 40
3.0
 40
3.0
 40
3.0
 40
4.0
 40
4.0
 40
4.0
 40
5.0
 40
5.0
 40
5.0
 40
6.0
 40
6.0
 40
6.0
 40
7.0
 40
7.0
 40
7.0
 40
8.0
 40
8.0
 40
8.0
 40
9.0
 40
9.0
 40
9.0
 40
10.0
 40
10.0
 40
10.0
 40
11.0
 40
11.0
 40
11.0
 40
12.0
 40
12.0
 40
12.0
 40
13.0
 40
13.0
 40
13.0
 40
14.0
 40
14.0
 40
14.0
 40
14.0
 10
520.4640108290853
 20
-892.9260305927407
 30
0.0
 10
520.4640108290853
 20
-892.9260305927407
 30
0.0
 10
520.4640108290853
 20
-684.3268769990572
 30
0.0
 10
520.4640108290853
 20
-684.3268769990572
 30
0.0
 10
520.4640108290853
 20
-665.3909096643815
 30
0.0
 10
513.1500731138998
 20
-647.5880342348042
 30
0.0
 10
499.8685409991646
 20
-634.1979816122838
 30
0.0
 10
486.5880424130751
 20
-620.8079289897634
 30
0.0
 10
468.9295164843301
 20
-613.4337021035859
 30
0.0
 10
450.1472004082966
 20
-613.4337021035859
 30
0.0
 10
431.3650565870371
 20
-613.4337021035859
 30
0.0
 10
413.7073919321633
 20
-620.8079289897634
 30
0.0
 10
400.4260320722025
 20
-634.1979816122838
 30
0.0
 10
387.1451889765644
 20
-647.5880342348042
 30
0.0
 10
379.8307344970562
 20
-665.3909096643815
 30
0.0
 10
379.8307344970562
 20
-684.3268769990572
 30
0.0
 10
379.8307344970562
 20
-684.3268769990572
 30
0.0
 10
379.8307344970562
 20
-892.9198294208672
 30
0.0
 10
379.8307344970562
 20
-892.9198294208672
 30
0.0
 10
379.8307344970562
 20
-892.9198294208672
 30
0.0
 10
376.9902532694679
 20
-892.3272729974042
 30
0.0
 10
376.9902532694679
 20
-892.3272729974042
 30
0.0
 10
376.9902532694679
 20
-892.3272729974042
 30
0.0
 10
376.9902532694679
 20
-684.3268769990572
 30
0.0
 10
376.9902532694679
 20
-684.3268769990572
 30
0.0
 10
376.9902532694679
 20
-664.6254094475589
 30
0.0
 10
384.6001246868361
 20
-646.1038870997587
 30
0.0
 10
398.4178859138504
 20
-632.172954486054
 30
0.0
 10
412.2349581217676
 20
-618.2423663818976
 30
0.0
 10
430.6066188159594
 20
-610.5701387362462
 30
0.0
 10
450.1472004082966
 20
-610.5701387362462
 30
0.0
 10
469.6884710197307
 20
-610.5701387362462
 30
0.0
 10
488.0594426948255
 20
-618.2423663818976
 30
0.0
 10
501.877376176614
 20
-632.172954486054
 30
0.0
 10
515.6942761297568
 20
-646.1038870997587
 30
0.0
 10
523.3041475471253
 20
-664.6254094475589
 30
0.0
 10
523.3041475471253
 20
-684.3268769990572
 30
0.0
 10
523.3041475471253
 20
-684.3268769990572
 30
0.0
 10
523.3041475471253
 20
-892.3338186788264
 30
0.0
 10
523.3041475471253
 20
-892.3338186788264
 30
0.0
 10
523.3041475471253
 20
-892.3338186788264
 30
0.0
 10
520.4640108290853
 20
-892.9260305927407
 30
0.0
 10
520.4640108290853
 20
-892.9260305927407
 30
0.0
  0
ENDBLK
  5
316
330
313
100
AcDbEntity
  8
0
100
AcDbBlockEnd
  0
BLOCK
  5
444
330
441
100
AcDbEntity
  8
0
100
AcDbBlockBegin
  2
A$C58984D63
 70
     0
 10
0.0
 20
0.0
 30
0.0
  3
A$C58984D63
  1

  0
INSERT
  5
442
330
441
100
AcDbEntity
  8
Capa 1
100
AcDbBlockReference
  2
block 2
 10
-50.14370886336354
 20
900.0084571605937
 30
0.0
  0
INSERT
  5
443
330
441
100
AcDbEntity
  8
Capa 1
100
AcDbBlockReference
  2
block 3
 10
-50.14370886336354
 20
900.0084571605937
 30
0.0
  0
ENDBLK
  5
445
330
441
100
AcDbEntity
  8
0
100
AcDbBlockEnd
  0
ENDSEC
  0
SECTION
  2
ENTITIES
  0
INSERT
  5
341
330
1F
100
AcDbEntity
  8
Capa 1
100
AcDbBlockReference
  2
block 2
 10
6.439823965907494
 20
19.78173438416349
 30
0.0
 41
0.0013310265215726
 42
0.0013310265215726
 43
0.0013310265215726
  0
SPLINE
  5
557
330
1F
100
AcDbEntity
  8
0
  6
Continuous
 62
     7
370
    15
100
AcDbSpline
210
0.0
220
0.0
230
1.0
 70
     8
 71
     3
 72
    50
 73
    46
 74
     0
 42
0.000000001
 43
0.0000000001
 40
0.0
 40
0.0
 40
0.0
 40
0.0
 40
0.0044777729244749
 40
0.0089589440208213
 40
0.0134438127002112
 40
0.0179326776339196
 40
0.0224258366963
 40
0.0269235869085388
 40
0.031426224383242
 40
0.0470015264794385
 40
0.0626362344370205
 40
0.0781525293631975
 40
0.0937334148804845
 40
0.1248080024258865
 40
0.1559485935506932
 40
0.1872357404618592
 40
0.218692083528128
 40
0.2500265560944137
 40
0.2812467583876316
 40
0.3124214939370091
 40
0.3436129812670735
 40
0.3748784586153068
 40
0.4062715079521689
 40
0.4376653337322943
 40
0.4689307028483324
 40
0.5001183762327618
 40
0.5312744235285101
 40
0.5624413220767313
 40
0.59365887287546
 40
0.624964980201196
 40
0.6563683252984408
 40
0.6876791225326933
 40
0.7188857760016734
 40
0.7500239427044853
 40
0.8122192263059876
 40
0.8433467726965041
 40
0.8745321161222943
 40
0.9058053307093027
 40
0.9214916479696135
 40
0.9371901627389828
 40
0.9528874558023396
 40
0.9685928004363576
 40
0.9790603305087719
 40
0.9895290300353515
 40
1.0
 40
1.0
 40
1.0
 40
1.0
 10
7.449915379872563
 20
18.98933584841045
 30
0.0
 10
7.45026321860143
 20
18.98944286806892
 30
0.0
 10
7.450959160033192
 20
18.98965698860285
 30
0.0
 10
7.452000112966921
 20
18.98998912127326
 30
0.0
 10
7.453039366746474
 20
18.99032941157069
 30
0.0
 10
7.454076683426213
 20
18.99067863992035
 30
0.0
 10
7.455112126347922
 20
18.99103659660466
 30
0.0
 10
7.456145680302129
 20
18.99140333910191
 30
0.0
 10
7.45802259943374
 20
18.99208650715478
 30
0.0
 10
7.460732116095573
 20
18.99312843603971
 30
0.0
 10
7.464237966364742
 20
18.99458947999772
 30
0.0
 10
7.467702967597301
 20
18.99614609883556
 30
0.0
 10
7.472255029654072
 20
18.99834071093563
 30
0.0
 10
7.477838889088192
 20
19.0013137703394
 30
0.0
 10
7.484354655580983
 20
19.00523093382053
 30
0.0
 10
7.490688869109772
 20
19.00949115268574
 30
0.0
 10
7.496816476314562
 20
19.01406962663743
 30
0.0
 10
7.502711930422642
 20
19.01893454039234
 30
0.0
 10
7.50835708368876
 20
19.02405349485349
 30
0.0
 10
7.513757034459723
 20
19.02941376607022
 30
0.0
 10
7.518919341717594
 20
19.03500808976773
 30
0.0
 10
7.523849900559384
 20
19.04083081462937
 30
0.0
 10
7.528544249331653
 20
19.04686631891811
 30
0.0
 10
7.532990238068062
 20
19.05308689072487
 30
0.0
 10
7.537178814428782
 20
19.05946350885988
 30
0.0
 10
7.541110606350502
 20
19.06597889939356
 30
0.0
 10
7.544793237710291
 20
19.07262904400853
 30
0.0
 10
7.548232759915671
 20
19.07941076027751
 30
0.0
 10
7.55143381977157
 20
19.08632161494203
 30
0.0
 10
7.554398897609741
 20
19.09335775805338
 30
0.0
 10
7.557123063894763
 20
19.10049870670636
 30
0.0
 10
7.559601931006903
 20
19.10771982710355
 30
0.0
 10
7.561834048068523
 20
19.11499850454043
 30
0.0
 10
7.56448569034478
 20
19.1247683054571
 30
0.0
 10
7.566665036482201
 20
19.13465454214408
 30
0.0
 10
7.568376923775839
 20
19.14462923253883
 30
0.0
 10
7.569429833113511
 20
19.15216344302
 30
0.0
 10
7.570113777176762
 20
19.15847876869608
 30
0.0
 10
7.570544734791902
 20
19.16355315823481
 30
0.0
 10
7.570809645493684
 20
19.1673707054125
 30
0.0
 10
7.571015692288111
 20
19.17119341428434
 30
0.0
 10
7.571146699496181
 20
19.17459401025203
 30
0.0
 10
7.571222600257875
 20
19.17757109753344
 30
0.0
 10
7.571263328934224
 20
19.18012343995083
 30
0.0
 10
7.571268365839503
 20
19.18182530438262
 30
0.0
 10
7.571270884565213
 20
19.18267632886305
 30
0.0
  0
LINE
  5
558
330
1F
100
AcDbEntity
  8
0
  6
Continuous
 62
     7
370
    15
100
AcDbLine
 10
7.572270912377532
 20
19.18267635270614
 30
0.0
 11
7.571270865647529
 21
19.18267635270614
 31
0.0
  0
SPLINE
  5
559
330
1F
100
AcDbEntity
  8
0
  6
Continuous
 62
     7
370
    15
100
AcDbSpline
210
0.0
220
0.0
230
1.0
 70
     8
 71
     3
 72
    10
 73
     6
 74
     0
 42
0.000000001
 43
0.0000000001
 40
0.0
 40
0.0
 40
0.0
 40
0.0
 40
0.5000000000000005
 40
0.5000000000000005
 40
1.0
 40
1.0
 40
1.0
 40
1.0
 10
7.572270884565212
 20
19.18267632886305
 30
0.0
 10
7.572270884565212
 20
19.13788341794545
 30
0.0
 10
7.560239539759572
 20
19.09438193319758
 30
0.0
 10
7.51597585601874
 20
19.02392446858041
 30
0.0
 10
7.485019685083803
 20
18.99899985063413
 30
0.0
 10
7.450207179409271
 20
18.98837936891229
 30
0.0
  0
LINE
  5
55A
330
1F
100
AcDbEntity
  8
0
  6
Continuous
 62
     7
370
    15
100
AcDbLine
 10
7.449915391657531
 20
18.98933584257614
 30
0.0
 11
7.450207186197533
 21
18.98837936683614
 31
0.0
  0
ARC
  5
55B
330
1F
100
AcDbEntity
  8
0
  6
Continuous
 62
     7
370
    15
100
AcDbCircle
 10
7.466256153927532
 20
18.93577299651614
 30
0.0
 40
0.0559999999999984
100
AcDbArc
 50
106.9657224158998
 51
177.3927376687999
  0
ARC
  5
55C
330
1F
100
AcDbEntity
  8
0
  6
Continuous
 62
     7
370
    15
100
AcDbCircle
 10
7.466256153927532
 20
18.93577299651614
 30
0.0
 40
0.0549999999999978
100
AcDbArc
 50
106.9657224158998
 51
177.3927376687999
  0
LINE
  5
55D
330
1F
100
AcDbEntity
  8
0
  6
Continuous
 62
     7
370
    15
100
AcDbLine
 10
7.410314125267531
 20
18.93832040592614
 30
0.0
 11
7.41131309911753
 21
18.93827492758614
 31
0.0
  0
SPLINE
  5
55E
330
1F
100
AcDbEntity
  8
0
  6
Continuous
 62
     7
370
    15
100
AcDbSpline
210
0.0
220
0.0
230
1.0
 70
     8
 71
     3
 72
     9
 73
     5
 74
     0
 42
0.000000001
 43
0.0000000001
 40
0.0
 40
0.0
 40
0.0
 40
0.0
 40
198.7290617106926
 40
394.6121626329409
 40
394.6121626329409
 40
394.6121626329409
 40
394.6121626329409
 10
6.706988446832832
 20
19.42860980420675
 30
0.0
 10
6.712921337781042
 20
19.52472036174336
 30
0.0
 10
6.76401123324154
 20
19.70806695751061
 30
0.0
 10
6.947737125052591
 20
19.78267632886305
 30
0.0
 10
7.038937551231881
 20
19.78267632886305
 30
0.0
  0
LINE
  5
55F
330
1F
100
AcDbEntity
  8
0
  6
Continuous
 62
     7
370
    15
100
AcDbLine
 10
7.038937551227532
 20
19.78267637654614
 30
0.0
 11
7.038937551227532
 21
19.78167632981614
 31
0.0
  0
SPLINE
  5
560
330
1F
100
AcDbEntity
  8
0
  6
Continuous
 62
     7
370
    15
100
AcDbSpline
210
0.0
220
0.0
230
1.0
 70
     8
 71
     3
 72
    56
 73
    52
 74
     0
 42
0.000000001
 43
0.0000000001
 40
0.0
 40
0.0
 40
0.0
 40
0.0
 40
0.0034856436752864
 40
0.0069728672026867
 40
0.0104617799921554
 40
0.0139524912948064
 40
0.0174451101929787
 40
0.0209397455903782
 40
0.0244365062023047
 40
0.0279355005459637
 40
0.0314368369308702
 40
0.047046825805384
 40
0.0626890467728488
 40
0.0782523593724065
 40
0.0938372980943871
 40
0.1093916675239738
 40
0.1249564805666258
 40
0.1561171845692444
 40
0.1873953305292184
 40
0.2188585689358363
 40
0.2502359374629046
 40
0.2814306366514094
 40
0.3125213266056955
 40
0.3435890801462005
 40
0.3747208792632502
 40
0.4060136828790182
 40
0.4375321681414725
 40
0.4688673217586624
 40
0.4813357730355226
 40
0.4999889978679612
 40
0.530817752842264
 40
0.5620523270498349
 40
0.593224242536375
 40
0.6246205905904234
 40
0.6560643573882215
 40
0.6873156167874438
 40
0.7184567464851525
 40
0.7495552937026944
 40
0.7806661508660496
 40
0.8118341362341434
 40
0.8430960264471249
 40
0.8744766314197271
 40
0.9058654032503056
 40
0.9214688565748263
 40
0.9372329001736725
 40
0.9528413467504428
 40
0.9686038969106462
 40
0.9763976605925217
 40
0.9842280580763919
 40
0.9920954018451419
 40
1.0
 40
1.0
 40
1.0
 40
1.0
 10
7.038937551231881
 20
19.78167632886304
 30
0.0
 10
7.038308654402952
 20
19.7816753066122
 30
0.0
 10
7.037050575700452
 20
19.78167326164722
 30
0.0
 10
7.03516306975239
 20
19.7816567783347
 30
0.0
 10
7.033274768090042
 20
19.78163047542833
 30
0.0
 10
7.031385670713272
 20
19.7815933884624
 30
0.0
 10
7.02949577767526
 20
19.78154577606634
 30
0.0
 10
7.027605088795429
 20
19.78148756885902
 30
0.0
 10
7.025713604775261
 20
19.781418785558
 30
0.0
 10
7.02382132301865
 20
19.78133942073873
 30
0.0
 10
7.019746452991511
 20
19.78114581588534
 30
0.0
 10
7.013487623307852
 20
19.78075332238699
 30
0.0
 10
7.005072283379981
 20
19.78001699697598
 30
0.0
 10
6.996681918809982
 20
19.77907571981575
 30
0.0
 10
6.988332660391312
 20
19.77793281978018
 30
0.0
 10
6.980013190012409
 20
19.77658818032633
 30
0.0
 10
6.968965982797631
 20
19.77452771426171
 30
0.0
 10
6.955227394011321
 20
19.7714470599384
 30
0.0
 10
6.938888157155461
 20
19.76694265467535
 30
0.0
 10
6.922751157650702
 20
19.76163243728647
 30
0.0
 10
6.906910658472582
 20
19.75553564576292
 30
0.0
 10
6.891456233096739
 20
19.74868139923834
 30
0.0
 10
6.876419371801662
 20
19.74107646200163
 30
0.0
 10
6.861806894738871
 20
19.73270697404326
 30
0.0
 10
6.847631006892352
 20
19.72354928373583
 30
0.0
 10
6.833916665526881
 20
19.71357357951686
 30
0.0
 10
6.820770628130271
 20
19.70280138472255
 30
0.0
 10
6.81078586606262
 20
19.69356851688859
 30
0.0
 10
6.802850291936773
 20
19.68556661419318
 30
0.0
 10
6.795229996341741
 20
19.67738595090639
 30
0.0
 10
6.785845962433971
 20
19.66623629958972
 30
0.0
 10
6.7758097786121
 20
19.65272386873839
 30
0.0
 10
6.766525289030572
 20
19.6385625365224
 30
0.0
 10
6.75802507706969
 20
19.62387438359465
 30
0.0
 10
6.750305598420623
 20
19.60874625879583
 30
0.0
 10
6.74336284562005
 20
19.59329787595792
 30
0.0
 10
6.737162729611811
 20
19.57760462537762
 30
0.0
 10
6.73165166497128
 20
19.56168391495159
 30
0.0
 10
6.726783183655929
 20
19.54555067306417
 30
0.0
 10
6.722516832405271
 20
19.52921793281821
 30
0.0
 10
6.718817446483742
 20
19.51269806496088
 30
0.0
 10
6.715658622443522
 20
19.49602627537215
 30
0.0
 10
6.713458153702062
 20
19.48205582149401
 30
0.0
 10
6.71194068198958
 20
19.47083488889863
 30
0.0
 10
6.710923514388922
 20
19.46242023071972
 30
0.0
 10
6.710018630531483
 20
19.45396393944959
 30
0.0
 10
6.709360384263889
 20
19.44692815432588
 30
0.0
 10
6.70888741872189
 20
19.44128497038996
 30
0.0
 10
6.708560727984973
 20
19.43705910931873
 30
0.0
 10
6.708257325984981
 20
19.43281144614658
 30
0.0
 10
6.708076948664891
 20
19.42997151250558
 30
0.0
 10
6.707986546973173
 20
19.42854819162808
 30
0.0
  0
LINE
  5
561
330
1F
100
AcDbEntity
  8
0
  6
Continuous
 62
     7
370
    15
100
AcDbLine
 10
6.706988436427532
 20
19.42860982581614
 30
0.0
 11
6.707986546007531
 21
19.42854819461613
 31
0.0
  0
ARC
  5
562
330
1F
100
AcDbEntity
  8
0
  6
Continuous
 62
     7
370
    15
100
AcDbCircle
 10
6.652092939117532
 20
19.43199849603614
 30
0.0
 40
0.0550000000000022
100
AcDbArc
 50
282.1134537211004
 51
356.4676219858997
  0
ARC
  5
563
330
1F
100
AcDbEntity
  8
0
  6
Continuous
 62
     7
370
    15
100
AcDbCircle
 10
6.652092939117532
 20
19.43199849603614
 30
0.0
 40
0.0560000000000029
100
AcDbArc
 50
282.1134537211004
 51
356.4676219858997
  0
LINE
  5
564
330
1F
100
AcDbEntity
  8
0
  6
Continuous
 62
     7
370
    15
100
AcDbLine
 10
6.66363458081753
 20
19.37822309895614
 30
0.0
 11
6.66384444877753
 21
19.37724540396614
 31
0.0
  0
SPLINE
  5
565
330
1F
100
AcDbEntity
  8
0
  6
Continuous
 62
     7
370
    15
100
AcDbSpline
210
0.0
220
0.0
230
1.0
 70
     8
 71
     3
 72
    52
 73
    48
 74
     0
 42
0.000000001
 43
0.0000000001
 40
0.0
 40
0.0
 40
0.0
 40
0.0
 40
0.0062681101698013
 40
0.0125344544199418
 40
0.0187992683364553
 40
0.0250627876780565
 40
0.0313252483496651
 40
0.037586886375859
 40
0.0438479378742479
 40
0.0501086390288044
 40
0.0563692260631523
 40
0.0626299352138309
 40
0.0937617649584415
 40
0.1248467941864595
 40
0.1559081021125717
 40
0.1868901228609375
 40
0.2179209764471725
 40
0.2489990667636777
 40
0.2801570205315669
 40
0.3114295801956556
 40
0.3428502581004867
 40
0.3742340842247057
 40
0.405488559820163
 40
0.4366501690376034
 40
0.4677565379514513
 40
0.4988471076385785
 40
0.5299638975176632
 40
0.5611523991934133
 40
0.5924626533988464
 40
0.6239392311066727
 40
0.6553471217697365
 40
0.6866118384989413
 40
0.7177899639803264
 40
0.748941827366656
 40
0.7801328918279329
 40
0.8114354301349369
 40
0.8429295581706544
 40
0.874424673984828
 40
0.9057880856157911
 40
0.9214794690282332
 40
0.9371097792790191
 40
0.9528225944981599
 40
0.9684798803403539
 40
0.9763790764363522
 40
0.9842644223000132
 40
0.992137525221679
 40
1.0
 40
1.0
 40
1.0
 40
1.0
 10
6.506604217898551
 20
19.18267632886305
 30
0.0
 10
6.50660512385478
 20
19.18216688820115
 30
0.0
 10
6.506606935512011
 20
19.18114815040248
 30
0.0
 10
6.506621526262331
 20
19.1796202973418
 30
0.0
 10
6.506644809773811
 20
19.17809293231602
 30
0.0
 10
6.50667763780378
 20
19.17656605534289
 30
0.0
 10
6.506719782207093
 20
19.17503966641136
 30
0.0
 10
6.506771304088254
 20
19.17351376558684
 30
0.0
 10
6.506832187113512
 20
19.17198835265777
 30
0.0
 10
6.506902435527773
 20
19.17046342844399
 30
0.0
 10
6.506982048682261
 20
19.16893898991696
 30
0.0
 10
6.507188843272301
 20
19.16539711352413
 30
0.0
 10
6.507615192461131
 20
19.15984696072852
 30
0.0
 10
6.50842779615596
 20
19.15230831230123
 30
0.0
 10
6.509470340082631
 20
19.14481023085386
 30
0.0
 10
6.51074411339204
 20
19.13735242109085
 30
0.0
 10
6.51225029194171
 20
19.12993663061779
 30
0.0
 10
6.513993340405703
 20
19.12255818714184
 30
0.0
 10
6.515976962643391
 20
19.11522035439787
 30
0.0
 10
6.518206611602722
 20
19.10792432259463
 30
0.0
 10
6.520683127288273
 20
19.10068887670352
 30
0.0
 10
6.523402256081982
 20
19.09354259321353
 30
0.0
 10
6.526356877450003
 20
19.08651320591537
 30
0.0
 10
6.529545322257901
 20
19.07961152235811
 30
0.0
 10
6.53297081431284
 20
19.07283922977464
 30
0.0
 10
6.53663783941909
 20
19.0661986955284
 30
0.0
 10
6.540552263340081
 20
19.05969302850032
 30
0.0
 10
6.54472149404503
 20
19.05332616262715
 30
0.0
 10
6.549154162071613
 20
19.04710372217992
 30
0.0
 10
6.553845944407082
 20
19.04105149355133
 30
0.0
 10
6.558783500539603
 20
19.03520274209867
 30
0.0
 10
6.563950106709191
 20
19.02958808339429
 30
0.0
 10
6.569343172473991
 20
19.02421986065148
 30
0.0
 10
6.574968304943861
 20
19.01910400340086
 30
0.0
 10
6.580832751064101
 20
19.0142481914331
 30
0.0
 10
6.586945552792911
 20
19.00966216637546
 30
0.0
 10
6.593298908990329
 20
19.00537087212889
 30
0.0
 10
6.599867848667112
 20
19.00140774128212
 30
0.0
 10
6.605502720224079
 20
18.99839985217562
 30
0.0
 10
6.610090783146188
 20
18.99618373732276
 30
0.0
 10
6.613577399764973
 20
18.99461513043378
 30
0.0
 10
6.617103281531639
 20
18.9931441334023
 30
0.0
 10
6.620082396666451
 20
18.99199778698277
 30
0.0
 10
6.622486232629882
 20
18.99113049457719
 30
0.0
 10
6.624304224434831
 20
18.99050426440206
 30
0.0
 10
6.626127574597609
 20
18.98990313272063
 30
0.0
 10
6.627349281648961
 20
18.98952485801559
 30
0.0
 10
6.6279597225912
 20
18.98933584841045
 30
0.0
  0
LINE
  5
566
330
1F
100
AcDbEntity
  8
0
  6
Continuous
 62
     7
370
    15
100
AcDbLine
 10
6.627959710807531
 20
18.98933584257614
 30
0.0
 11
6.62766791626753
 21
18.98837936683614
 31
0.0
  0
SPLINE
  5
567
330
1F
100
AcDbEntity
  8
0
  6
Continuous
 62
     7
370
    15
100
AcDbSpline
210
0.0
220
0.0
230
1.0
 70
     8
 71
     3
 72
    10
 73
     6
 74
     0
 42
0.000000001
 43
0.0000000001
 40
0.0
 40
0.0
 40
0.0
 40
0.0
 40
0.5
 40
0.5
 40
1.0
 40
1.0
 40
1.0
 40
1.0
 10
6.627667923054489
 20
18.98837936891229
 30
0.0
 10
6.59285541737996
 20
18.99899985063413
 30
0.0
 10
6.561899246445032
 20
19.02392446858041
 30
0.0
 10
6.51763556270419
 20
19.09438193319758
 30
0.0
 10
6.505604217898551
 20
19.13788341794545
 30
0.0
 10
6.505604217898551
 20
19.18267632886305
 30
0.0
  0
LINE
  5
568
330
1F
100
AcDbEntity
  8
0
  6
Continuous
 62
     7
370
    15
100
AcDbLine
 10
6.506604236817529
 20
19.18267635270614
 30
0.0
 11
6.505604190087532
 21
19.18267635270614
 31
0.0
  0
ARC
  5
569
330
1F
100
AcDbEntity
  8
0
  6
Continuous
 62
     7
370
    15
100
AcDbCircle
 10
6.705604217897533
 20
19.18267632886614
 30
0.0
 40
0.1989999999999981
100
AcDbArc
 50
102.1134537211004
 51
180.0
  0
ARC
  5
56A
330
1F
100
AcDbEntity
  8
0
  6
Continuous
 62
     7
370
    15
100
AcDbCircle
 10
6.705604217897533
 20
19.18267632886614
 30
0.0
 40
0.2000000000000001
100
AcDbArc
 50
102.1134537211004
 51
180.0
  0
ARC
  5
56B
330
1F
100
AcDbEntity
  8
0
  6
Continuous
 62
     7
370
    15
100
AcDbCircle
 10
6.611618948537533
 20
18.93577299651614
 30
0.0
 40
0.0559999999999984
100
AcDbArc
 50
2.607262331200065
 51
73.03427758410016
  0
LINE
  5
56C
330
1F
100
AcDbEntity
  8
0
  6
Continuous
 62
     7
370
    15
100
AcDbLine
 10
6.667560977187533
 20
18.93832040592614
 30
0.0
 11
6.666562003347531
 21
18.93827492758614
 31
0.0
  0
ARC
  5
56D
330
1F
100
AcDbEntity
  8
0
  6
Continuous
 62
     7
370
    15
100
AcDbCircle
 10
6.611618948537533
 20
18.93577299651614
 30
0.0
 40
0.0549999999999976
100
AcDbArc
 50
2.607262331200065
 51
73.03427758410016
  0
SPLINE
  5
56E
330
1F
100
AcDbEntity
  8
0
  6
Continuous
 62
     7
370
    15
100
AcDbSpline
210
0.0
220
0.0
230
1.0
 70
     8
 71
     3
 72
     9
 73
     5
 74
     0
 42
0.000000001
 43
0.0000000001
 40
31.52807004603019
 40
31.52807004603019
 40
31.52807004603019
 40
31.52807004603019
 40
227.4111709682784
 40
426.1402326789712
 40
426.1402326789712
 40
426.1402326789712
 40
426.1402326789712
 10
7.038937551231881
 20
19.78267632886305
 30
0.0
 10
7.130137977411174
 20
19.78267632886305
 30
0.0
 10
7.313863869222221
 20
19.70806695751061
 30
0.0
 10
7.364953764682723
 20
19.52472036174336
 30
0.0
 10
7.37088665563093
 20
19.42860980420675
 30
0.0
  0
LINE
  5
56F
330
1F
100
AcDbEntity
  8
0
  6
Continuous
 62
     7
370
    15
100
AcDbLine
 10
7.370886666027531
 20
19.42860982581614
 30
0.0
 11
7.369888556447535
 21
19.42854819461613
 31
0.0
  0
SPLINE
  5
570
330
1F
100
AcDbEntity
  8
0
  6
Continuous
 62
     7
370
    15
100
AcDbSpline
210
0.0
220
0.0
230
1.0
 70
     8
 71
     3
 72
    61
 73
    57
 74
     0
 42
0.000000001
 43
0.0000000001
 40
0.0
 40
0.0
 40
0.0
 40
0.0
 40
0.0048868661980496
 40
0.0097593086406154
 40
0.0146173993065287
 40
0.0194612108144213
 40
0.024290816427036
 40
0.0291062900555011
 40
0.0339077062635725
 40
0.0386951402718343
 40
0.0434686679618594
 40
0.0482283658803256
 40
0.0529743112430864
 40
0.0577065819391913
 40
0.0624252565348544
 40
0.078040121974881
 40
0.0934995438317503
 40
0.1090838837392763
 40
0.1245077466613047
 40
0.1554731592104445
 40
0.1864258533576363
 40
0.2174013194547275
 40
0.2484429736917875
 40
0.2796042989059061
 40
0.3109516444144184
 40
0.3424036246957092
 40
0.3736846670662528
 40
0.4048566815792832
 40
0.4360064759048406
 40
0.4672360496302613
 40
0.4986649581924734
 40
0.5065637141376467
 40
0.5144455871588819
 40
0.5301538076567607
 40
0.5614063329303331
 40
0.5925474471988239
 40
0.6236857038934629
 40
0.6549185957493659
 40
0.6863369732848126
 40
0.7177874201197522
 40
0.7490822659107989
 40
0.7803050278976995
 40
0.8115333633093763
 40
0.842842139602874
 40
0.8743022859083721
 40
0.8900331497683362
 40
0.9057556664434519
 40
0.9214571419944164
 40
0.9371389172857021
 40
0.9528484028691778
 40
0.9685274985504721
 40
0.9748350896050583
 40
0.9811354989151983
 40
0.9874293618693601
 40
0.99371731584051
 40
1.0
 40
1.0
 40
1.0
 40
1.0
 10
7.369888555490592
 20
19.42854819162808
 30
0.0
 10
7.369833263579413
 20
19.42942816984852
 30
0.0
 10
7.369722842953074
 20
19.4311855290031
 30
0.0
 10
7.36954468790564
 20
19.43381685802097
 30
0.0
 10
7.369357661032361
 20
19.4364397788129
 30
0.0
 10
7.369160853548353
 20
19.43905423528928
 30
0.0
 10
7.368954507882951
 20
19.44166024241416
 30
0.0
 10
7.368738559358853
 20
19.44425779619734
 30
0.0
 10
7.368513025226691
 20
19.44684689770271
 30
0.0
 10
7.368277900876353
 20
19.4494275466543
 30
0.0
 10
7.368033187546481
 20
19.45199974310193
 30
0.0
 10
7.36777888485244
 20
19.45456348712592
 30
0.0
 10
7.367514993076283
 20
19.45711877836185
 30
0.0
 10
7.36724151145374
 20
19.45966561818597
 30
0.0
 10
7.366740289675052
 20
19.46416026160033
 30
0.0
 10
7.365967619965162
 20
19.47057204879079
 30
0.0
 10
7.364843675872042
 20
19.4789153290344
 30
0.0
 10
7.363604883229261
 20
19.48720754773642
 30
0.0
 10
7.361788895328079
 20
19.49824101111396
 30
0.0
 10
7.35920770993579
 20
19.51195717092478
 30
0.0
 10
7.355572670743801
 20
19.52832172357242
 30
0.0
 10
7.351367022759162
 20
19.54456376468769
 30
0.0
 10
7.346548367270441
 20
19.56067445194694
 30
0.0
 10
7.341067469085442
 20
19.57664370503079
 30
0.0
 10
7.33487760241956
 20
19.59243215517486
 30
0.0
 10
7.32795541759006
 20
19.60793813601738
 30
0.0
 10
7.320290857692563
 20
19.62305634868453
 30
0.0
 10
7.311873375310292
 20
19.63770674508388
 30
0.0
 10
7.302663551359503
 20
19.65186265707284
 30
0.0
 10
7.292616760890861
 20
19.66549557143147
 30
0.0
 10
7.284445076589652
 20
19.67526933619001
 30
0.0
 10
7.278725362481751
 20
19.68158128013127
 30
0.0
 10
7.274843041262841
 20
19.68572959632575
 30
0.0
 10
7.267910807951975
 20
19.69279242583251
 30
0.0
 10
7.257576666123102
 20
19.70238632904818
 30
0.0
 10
7.244541686490372
 20
19.71311874307668
 30
0.0
 10
7.230917512119289
 20
19.72308601399179
 30
0.0
 10
7.216721257863601
 20
19.73231112802301
 30
0.0
 10
7.202000317876643
 20
19.74078634339448
 30
0.0
 10
7.18684487853253
 20
19.74848142940145
 30
0.0
 10
7.171348142459341
 20
19.75537636146394
 30
0.0
 10
7.155563764181322
 20
19.76147341604709
 30
0.0
 10
7.1394962999413
 20
19.76678739796994
 30
0.0
 10
7.123147886777414
 20
19.77132322025038
 30
0.0
 10
7.1093260665539
 20
19.77444258103389
 30
0.0
 10
7.098168558874161
 20
19.77653541000426
 30
0.0
 10
7.089769804393491
 20
19.77789944253672
 30
0.0
 10
7.08134907620754
 20
19.77905679267883
 30
0.0
 10
7.072904828525113
 20
19.7800072113858
 30
0.0
 10
7.064443814845332
 20
19.78074938621197
 30
0.0
 10
7.057655093774722
 20
19.78117588669039
 30
0.0
 10
7.052556572314323
 20
19.78140701753886
 30
0.0
 10
7.049148265548361
 20
19.78152744959076
 30
0.0
 10
7.045742468599409
 20
19.7816128595197
 30
0.0
 10
7.042339174993721
 20
19.78166638082241
 30
0.0
 10
7.040071108882682
 20
19.78167301377638
 30
0.0
 10
7.038937551231881
 20
19.78167632886304
 30
0.0
  0
SPLINE
  5
571
330
1F
100
AcDbEntity
  8
0
  6
Continuous
 62
     7
370
    15
100
AcDbSpline
210
0.0
220
0.0
230
1.0
 70
     8
 71
     3
 72
    56
 73
    52
 74
     0
 42
0.000000001
 43
0.0000000001
 40
0.0
 40
0.0
 40
0.0
 40
0.0
 40
0.0045469608762406
 40
0.0090684155414996
 40
0.0135644104934992
 40
0.018034993024366
 40
0.0224802112373071
 40
0.0269001140636716
 40
0.0312947512804199
 40
0.047055162250985
 40
0.062515707323709
 40
0.0782426262544787
 40
0.0936764832171934
 40
0.1247966104876419
 40
0.1559065043305299
 40
0.1714707513637204
 40
0.1870491937516287
 40
0.2026494772080995
 40
0.2182805644771453
 40
0.2496760802705006
 40
0.2810685651171994
 40
0.3122739776094033
 40
0.3433956805534792
 40
0.3745658988301662
 40
0.405946464403461
 40
0.4374384166778948
 40
0.4687036920629013
 40
0.4998780698077961
 40
0.5310864086974504
 40
0.5624363743714623
 40
0.5939031866939574
 40
0.6251763072834047
 40
0.6563159628298616
 40
0.6874011885425882
 40
0.7185001776536695
 40
0.7496736216218673
 40
0.7809773559966546
 40
0.8123942986173814
 40
0.8437041405487445
 40
0.8749324952099911
 40
0.8905188553739723
 40
0.9061302047987588
 40
0.9217305280133968
 40
0.9373428622129488
 40
0.9529802947565496
 40
0.9686168894284993
 40
0.9748979325420316
 40
0.9811763879722875
 40
0.9874526327104467
 40
0.9937270441461699
 40
1.0
 40
1.0
 40
1.0
 40
1.0
 10
6.667560978004039
 20
18.93832041461107
 30
0.0
 10
6.667601783667389
 20
18.93744188655918
 30
0.0
 10
6.66768316609441
 20
18.93568975856506
 30
0.0
 10
6.66781546092029
 20
18.93306945720629
 30
0.0
 10
6.667954825938033
 20
18.93046431970274
 30
0.0
 10
6.668102006997252
 20
18.92787437991175
 30
0.0
 10
6.668256805993862
 20
18.92529962913552
 30
0.0
 10
6.668419275350639
 20
18.92274006854103
 30
0.0
 10
6.668736391853722
 20
18.917997360578
 30
0.0
 10
6.669249926141753
 20
18.91112754212825
 30
0.0
 10
6.670043370416322
 20
18.90208135516923
 30
0.0
 10
6.670953646333999
 20
18.89310958236005
 30
0.0
 10
6.67234221123294
 20
18.88114315032846
 30
0.0
 10
6.674413187510293
 20
18.86626213057939
 30
0.0
 10
6.67699323319026
 20
18.85143438857466
 30
0.0
 10
6.679394110702074
 20
18.8396345743855
 30
0.0
 10
6.681374361845271
 20
18.83081240622996
 30
0.0
 10
6.68354403361199
 20
18.822021464817
 30
0.0
 10
6.686709590787621
 20
18.81032825434559
 30
0.0
 10
6.691192395615401
 20
18.79583091156019
 30
0.0
 10
6.697471595688752
 20
18.7787597923882
 30
0.0
 10
6.704706070960701
 20
18.762126654834
 30
0.0
 10
6.712954243838789
 20
18.74601848108033
 30
0.0
 10
6.722298625891961
 20
18.73047794119739
 30
0.0
 10
6.732798292225083
 20
18.71560459734369
 30
0.0
 10
6.744341153645261
 20
18.70150362718518
 30
0.0
 10
6.756787552381832
 20
18.68825009905353
 30
0.0
 10
6.770021332919403
 20
18.67586485700394
 30
0.0
 10
6.78399983815009
 20
18.66430280169778
 30
0.0
 10
6.798672551322723
 20
18.65354121849094
 30
0.0
 10
6.813929192410692
 20
18.64360347351652
 30
0.0
 10
6.829651363020123
 20
18.63450283525668
 30
0.0
 10
6.84574106707469
 20
18.62623092267113
 30
0.0
 10
6.862173924079059
 20
18.61874601125047
 30
0.0
 10
6.87893570087379
 20
18.61201371399812
 30
0.0
 10
6.89601597127273
 20
18.60600867347767
 30
0.0
 10
6.913394667241491
 20
18.60071743399531
 30
0.0
 10
6.931003127858244
 20
18.59614461484857
 30
0.0
 10
6.948767547777653
 20
18.59229117160718
 30
0.0
 10
6.96365433261726
 20
18.58967398626861
 30
0.0
 10
6.975603007633721
 20
18.58793136278483
 30
0.0
 10
6.984584161194773
 20
18.58679879846932
 30
0.0
 10
6.99359044267669
 20
18.58583915201812
 30
0.0
 10
7.002618575412781
 20
18.58505268978641
 30
0.0
 10
7.011667139603203
 20
18.58443951760748
 30
0.0
 10
7.018923044176511
 20
18.58408804693233
 30
0.0
 10
7.02437345869083
 20
18.58389777848755
 30
0.0
 10
7.028015369407271
 20
18.58379874128173
 30
0.0
 10
7.03165665172714
 20
18.58372850628378
 30
0.0
 10
7.035297309900802
 20
18.58368450117221
 30
0.0
 10
7.037724231301441
 20
18.58367905275542
 30
0.0
 10
7.038937551231881
 20
18.58367632886305
 30
0.0
  0
LINE
  5
572
330
1F
100
AcDbEntity
  8
0
  6
Continuous
 62
     7
370
    15
100
AcDbLine
 10
7.038937551227532
 20
18.58367632890614
 30
0.0
 11
7.038937551227532
 21
18.58267632886614
 31
0.0
  0
SPLINE
  5
573
330
1F
100
AcDbEntity
  8
0
  6
Continuous
 62
     7
370
    15
100
AcDbSpline
210
0.0
220
0.0
230
1.0
 70
     8
 71
     3
 72
     9
 73
     5
 74
     0
 42
0.000000001
 43
0.0000000001
 40
30.74063741587977
 40
30.74063741587977
 40
30.74063741587977
 40
30.74063741587977
 40
292.6714553857298
 40
452.8074880359715
 40
452.8074880359715
 40
452.8074880359715
 40
452.8074880359715
 10
7.038937551231881
 20
18.58267632886305
 30
0.0
 10
6.911732674955662
 20
18.58267632886305
 30
0.0
 10
6.706758850456689
 20
18.66602710220345
 30
0.0
 10
6.67005772504046
 20
18.86150809372749
 30
0.0
 10
6.66656201319211
 20
18.93827492500219
 30
0.0
  0
ARC
  5
574
330
1F
100
AcDbEntity
  8
0
  6
Continuous
 62
     7
370
    15
100
AcDbCircle
 10
7.425782163347533
 20
19.43199849603614
 30
0.0
 40
0.0549999999999994
100
AcDbArc
 50
183.5323780141003
 51
257.8865462788996
  0
LINE
  5
575
330
1F
100
AcDbEntity
  8
0
  6
Continuous
 62
     7
370
    15
100
AcDbLine
 10
7.414240521637531
 20
19.37822309895614
 30
0.0
 11
7.414030653687532
 21
19.37724540396614
 31
0.0
  0
ARC
  5
576
330
1F
100
AcDbEntity
  8
0
  6
Continuous
 62
     7
370
    15
100
AcDbCircle
 10
7.425782163347533
 20
19.43199849603614
 30
0.0
 40
0.0560000000000022
100
AcDbArc
 50
183.5323780141003
 51
257.8865462788996
  0
SPLINE
  5
577
330
1F
100
AcDbEntity
  8
0
  6
Continuous
 62
     7
370
    15
100
AcDbSpline
210
0.0
220
0.0
230
1.0
 70
     8
 71
     3
 72
    57
 73
    53
 74
     0
 42
0.000000001
 43
0.0000000001
 40
0.0
 40
0.0
 40
0.0
 40
0.0
 40
0.0034805977522543
 40
0.0069616376630957
 40
0.0104431843060016
 40
0.013925302226258
 40
0.0174080559373889
 40
0.0208915099175935
 40
0.0243757286061942
 40
0.0278607764000943
 40
0.0313467176502484
 40
0.0469449890024904
 40
0.0625460127026173
 40
0.0781010476411437
 40
0.0936461077728674
 40
0.109181018154123
 40
0.1246931812055218
 40
0.1557318918920199
 40
0.1868113092039675
 40
0.2179822730048208
 40
0.2493008226501878
 40
0.2807000894297657
 40
0.3119450590292764
 40
0.3430837767934907
 40
0.3741811854645553
 40
0.4053105126577253
 40
0.436556899536445
 40
0.4680077340049757
 40
0.4993700640735649
 40
0.5305669071019984
 40
0.5617172036159709
 40
0.5929576091443211
 40
0.6244385603460687
 40
0.6558420218306386
 40
0.6714678705738587
 40
0.6870679296462301
 40
0.7182530055493395
 40
0.7495137305836632
 40
0.7809334843599978
 40
0.8123369912616455
 40
0.8279926072700519
 40
0.8436281371462889
 40
0.8748646358705888
 40
0.9060924834588291
 40
0.9215701307528719
 40
0.9373444227887091
 40
0.9528415404813658
 40
0.9686418667858571
 40
0.9763640421541236
 40
0.9841642818370219
 40
0.9920428492425523
 40
1.0
 40
1.0
 40
1.0
 40
1.0
 10
7.038937551231881
 20
18.58367632886305
 30
0.0
 10
7.039610771493051
 20
18.58367716861025
 30
0.0
 10
7.040957297538109
 20
18.58367884821133
 30
0.0
 10
7.042977189851563
 20
18.58369240085608
 30
0.0
 10
7.044997301207552
 20
18.58371403006578
 30
0.0
 10
7.04701763160961
 20
18.58374452827781
 30
0.0
 10
7.049038181023921
 20
18.58378368310579
 30
0.0
 10
7.051058949569878
 20
18.58383155149043
 30
0.0
 10
7.053079936791223
 20
18.58388811810327
 30
0.0
 10
7.055101144381811
 20
18.58395338730057
 30
0.0
 10
7.059463592213032
 20
18.58411302193379
 30
0.0
 10
7.066165072991691
 20
18.58443716294777
 30
0.0
 10
7.075188239840053
 20
18.58504758300635
 30
0.0
 10
7.08418781764286
 20
18.58582999648171
 30
0.0
 10
7.09315799339799
 20
18.58678360137461
 30
0.0
 10
7.102100011629382
 20
18.58790828634461
 30
0.0
 10
7.113984302713133
 20
18.58963642978543
 30
0.0
 10
7.128778412815132
 20
18.59222835748432
 30
0.0
 10
7.146420175233539
 20
18.59603921277745
 30
0.0
 10
7.163947570235893
 20
18.6005686379901
 30
0.0
 10
7.181332616739735
 20
18.60583553559613
 30
0.0
 10
7.19849117563874
 20
18.6118437427646
 30
0.0
 10
7.215336435668162
 20
18.61858917691849
 30
0.0
 10
7.231804033130921
 20
18.6260713194233
 30
0.0
 10
7.247878915522082
 20
18.63431596840885
 30
0.0
 10
7.263543512919341
 20
18.64335895771849
 30
0.0
 10
7.278772539842903
 20
18.65324544986395
 30
0.0
 10
7.293469332978491
 20
18.66398556400363
 30
0.0
 10
7.30750766120028
 20
18.67555966186775
 30
0.0
 10
7.32076858743746
 20
18.68793332869807
 30
0.0
 10
7.33319126490653
 20
18.70111761599314
 30
0.0
 10
7.344731348539712
 20
18.71515396576423
 30
0.0
 10
7.355276419625131
 20
18.73001442871512
 30
0.0
 10
7.363134895755078
 20
18.7430249405588
 30
0.0
 10
7.368856424982841
 20
18.75370447656248
 30
0.0
 10
7.374204623992471
 20
18.76452881933819
 30
0.0
 10
7.380247714332093
 20
18.77837316860405
 30
0.0
 10
7.386540765405952
 20
18.79541268588524
 30
0.0
 10
7.391941163884921
 20
18.8127986358733
 30
0.0
 10
7.395750781038404
 20
18.82749790688903
 30
0.0
 10
7.398415770638432
 20
18.83932859224796
 30
0.0
 10
7.40083471610976
 20
18.8511791082057
 30
0.0
 10
7.403431761839251
 20
18.86606395561877
 30
0.0
 10
7.405514518694782
 20
18.88099772121316
 30
0.0
 10
7.406909907510603
 20
18.89300211803202
 30
0.0
 10
7.407823993094461
 20
18.90199836105734
 30
0.0
 10
7.408620486895403
 20
18.91106835577945
 30
0.0
 10
7.409183539788073
 20
18.91859474623425
 30
0.0
 10
7.409580322596842
 20
18.92464023621414
 30
0.0
 10
7.409849777540535
 20
18.92915846545319
 30
0.0
 10
7.410097475309531
 20
18.9337234709088
 30
0.0
 10
7.410241669559243
 20
18.93678303909806
 30
0.0
 10
7.410314124459721
 20
18.93832041461107
 30
0.0
  0
SPLINE
  5
578
330
1F
100
AcDbEntity
  8
0
  6
Continuous
 62
     7
370
    15
100
AcDbSpline
210
0.0
220
0.0
230
1.0
 70
     8
 71
     3
 72
     9
 73
     5
 74
     0
 42
0.000000001
 43
0.0000000001
 40
0.0
 40
0.0
 40
0.0
 40
0.0
 40
160.1360326502418
 40
422.0668506200917
 40
422.0668506200917
 40
422.0668506200917
 40
422.0668506200917
 10
7.411313089271652
 20
18.9382749250022
 30
0.0
 10
7.407817377423302
 20
18.86150809372749
 30
0.0
 10
7.37111625200707
 20
18.66602710220345
 30
0.0
 10
7.166142427508103
 20
18.58267632886305
 30
0.0
 10
7.038937551231881
 20
18.58267632886305
 30
0.0
  0
ARC
  5
579
330
1F
100
AcDbEntity
  8
0
  6
Continuous
 62
     7
370
    15
100
AcDbCircle
 10
7.372270884567531
 20
19.18267632886614
 30
0.0
 40
0.2000000000000001
100
AcDbArc
 50
0.0
 51
77.88654627889954
  0
ARC
  5
57A
330
1F
100
AcDbEntity
  8
0
  6
Continuous
 62
     7
370
    15
100
AcDbCircle
 10
7.372270884567531
 20
19.18267632886614
 30
0.0
 40
0.1989999999999981
100
AcDbArc
 50
0.0
 51
77.88654627889954
  0
LINE
  5
57B
330
1F
100
AcDbEntity
  8
0
  6
Continuous
 62
     7
370
    15
100
AcDbLine
 10
8.743760964447535
 20
19.13367632790613
 30
0.0
 11
8.743760964447535
 21
19.23167631789614
 31
0.0
  0
LINE
  5
57C
330
1F
100
AcDbEntity
  8
0
  6
Continuous
 62
     7
370
    15
100
AcDbLine
 10
8.738760964327536
 20
19.13367632790613
 30
0.0
 11
8.743760964447535
 21
19.13367632790613
 31
0.0
  0
LINE
  5
57D
330
1F
100
AcDbEntity
  8
0
  6
Continuous
 62
     7
370
    15
100
AcDbLine
 10
8.738760964327536
 20
19.13367632790613
 30
0.0
 11
8.738760964327536
 21
19.13892630502614
 31
0.0
  0
LINE
  5
57E
330
1F
100
AcDbEntity
  8
0
  6
Continuous
 62
     7
370
    15
100
AcDbLine
 10
8.73656565167753
 20
19.13892630502614
 30
0.0
 11
8.734760964597533
 21
19.13367632790613
 31
0.0
  0
LINE
  5
57F
330
1F
100
AcDbEntity
  8
0
  6
Continuous
 62
     7
370
    15
100
AcDbLine
 10
8.730760964877532
 20
19.13367632790613
 30
0.0
 11
8.734760964597533
 21
19.13367632790613
 31
0.0
  0
LINE
  5
580
330
1F
100
AcDbEntity
  8
0
  6
Continuous
 62
     7
370
    15
100
AcDbLine
 10
8.728760963617535
 20
19.13567630215614
 30
0.0
 11
8.730760964877532
 21
19.13367632790613
 31
0.0
  0
LINE
  5
581
330
1F
100
AcDbEntity
  8
0
  6
Continuous
 62
     7
370
    15
100
AcDbLine
 10
8.728760963617535
 20
19.13892630502614
 30
0.0
 11
8.728760963617535
 21
19.13567630215614
 31
0.0
  0
LINE
  5
582
330
1F
100
AcDbEntity
  8
0
  6
Continuous
 62
     7
370
    15
100
AcDbLine
 10
8.743760964447535
 20
19.23167631789614
 30
0.0
 11
8.738760964327536
 21
19.23167631789614
 31
0.0
  0
LINE
  5
583
330
1F
100
AcDbEntity
  8
0
  6
Continuous
 62
     7
370
    15
100
AcDbLine
 10
8.743760964447535
 20
19.23167631789614
 30
0.0
 11
8.745760964537534
 21
19.23167631789614
 31
0.0
  0
LINE
  5
584
330
1F
100
AcDbEntity
  8
0
  6
Continuous
 62
     7
370
    15
100
AcDbLine
 10
8.745760964537534
 20
19.13367632790613
 30
0.0
 11
8.743760964447535
 21
19.13367632790613
 31
0.0
  0
LINE
  5
585
330
1F
100
AcDbEntity
  8
0
  6
Continuous
 62
     7
370
    15
100
AcDbLine
 10
8.743260964597531
 20
19.13117633029614
 30
0.0
 11
8.740760964647531
 21
19.13117633029614
 31
0.0
  0
LINE
  5
586
330
1F
100
AcDbEntity
  8
0
  6
Continuous
 62
     7
370
    15
100
AcDbLine
 10
8.740760964647531
 20
19.13117633029614
 30
0.0
 11
8.740760964647531
 21
19.13217631741614
 31
0.0
  0
LINE
  5
587
330
1F
100
AcDbEntity
  8
0
  6
Continuous
 62
     7
370
    15
100
AcDbLine
 10
8.743260964597531
 20
19.13217631741614
 30
0.0
 11
8.740760964647531
 21
19.13217631741614
 31
0.0
  0
LINE
  5
588
330
1F
100
AcDbEntity
  8
0
  6
Continuous
 62
     7
370
    15
100
AcDbLine
 10
8.743260964597531
 20
19.13217631741614
 30
0.0
 11
8.743260964597531
 21
19.13117633029614
 31
0.0
  0
ARC
  5
589
330
1F
100
AcDbEntity
  8
0
  6
Continuous
 62
     7
370
    15
100
AcDbCircle
 10
8.743260964537533
 20
19.13367632886614
 30
0.0
 40
0.0025000000000006
100
AcDbArc
 50
270.0
 51
0.0
  0
ARC
  5
58A
330
1F
100
AcDbEntity
  8
0
  6
Continuous
 62
     7
370
    15
100
AcDbCircle
 10
8.743260964537533
 20
19.13367632886614
 30
0.0
 40
0.0015000000000015
100
AcDbArc
 50
270.0
 51
0.0
  0
LINE
  5
58B
330
1F
100
AcDbEntity
  8
0
  6
Continuous
 62
     7
370
    15
100
AcDbLine
 10
8.727760965317532
 20
19.14892635508614
 30
0.0
 11
8.728760963617535
 21
19.14892635508614
 31
0.0
  0
LINE
  5
58C
330
1F
100
AcDbEntity
  8
0
  6
Continuous
 62
     7
370
    15
100
AcDbLine
 10
8.728760963617535
 20
19.24892631932614
 30
0.0
 11
8.727760965317532
 21
19.24892631932614
 31
0.0
  0
LINE
  5
58D
330
1F
100
AcDbEntity
  8
0
  6
Continuous
 62
     7
370
    15
100
AcDbLine
 10
8.727760965317532
 20
19.24892631932614
 30
0.0
 11
8.727760965317532
 21
19.14892635508614
 31
0.0
  0
LINE
  5
58E
330
1F
100
AcDbEntity
  8
0
  6
Continuous
 62
     7
370
    15
100
AcDbLine
 10
8.728760963617535
 20
19.24892631932614
 30
0.0
 11
8.728760963617535
 21
19.14892635508614
 31
0.0
  0
LINE
  5
58F
330
1F
100
AcDbEntity
  8
0
  6
Continuous
 62
     7
370
    15
100
AcDbLine
 10
8.727760965317532
 20
19.25892630978614
 30
0.0
 11
8.728760963617535
 21
19.25892630978614
 31
0.0
  0
LINE
  5
590
330
1F
100
AcDbEntity
  8
0
  6
Continuous
 62
     7
370
    15
100
AcDbLine
 10
8.727760965317532
 20
19.24892631932614
 30
0.0
 11
8.727760965317532
 21
19.25892630978614
 31
0.0
  0
LINE
  5
591
330
1F
100
AcDbEntity
  8
0
  6
Continuous
 62
     7
370
    15
100
AcDbLine
 10
8.728760963617535
 20
19.25892630978614
 30
0.0
 11
8.728760963617535
 21
19.24892631932614
 31
0.0
  0
LINE
  5
592
330
1F
100
AcDbEntity
  8
0
  6
Continuous
 62
     7
370
    15
100
AcDbLine
 10
8.728760963617535
 20
19.13892630502614
 30
0.0
 11
8.727760965317532
 21
19.13892630502614
 31
0.0
  0
LINE
  5
593
330
1F
100
AcDbEntity
  8
0
  6
Continuous
 62
     7
370
    15
100
AcDbLine
 10
8.727760965317532
 20
19.13892630502614
 30
0.0
 11
8.727760965317532
 21
19.14892635508614
 31
0.0
  0
LINE
  5
594
330
1F
100
AcDbEntity
  8
0
  6
Continuous
 62
     7
370
    15
100
AcDbLine
 10
8.728760963617535
 20
19.14892635508614
 30
0.0
 11
8.728760963617535
 21
19.13892630502614
 31
0.0
  0
LINE
  5
595
330
1F
100
AcDbEntity
  8
0
  6
Continuous
 62
     7
370
    15
100
AcDbLine
 10
8.728760963617535
 20
19.13892630502614
 30
0.0
 11
8.729760963777533
 21
19.13892630502614
 31
0.0
  0
LINE
  5
596
330
1F
100
AcDbEntity
  8
0
  6
Continuous
 62
     7
370
    15
100
AcDbLine
 10
8.729760963777533
 20
19.13892630502614
 30
0.0
 11
8.729760963777533
 21
19.25892630978614
 31
0.0
  0
LINE
  5
597
330
1F
100
AcDbEntity
  8
0
  6
Continuous
 62
     7
370
    15
100
AcDbLine
 10
8.729760963777533
 20
19.25892630978614
 30
0.0
 11
8.728760963617535
 21
19.25892630978614
 31
0.0
  0
LINE
  5
598
330
1F
100
AcDbEntity
  8
0
  6
Continuous
 62
     7
370
    15
100
AcDbLine
 10
8.736760964927533
 20
19.13892630502614
 30
0.0
 11
8.736760964927533
 21
19.25892630978614
 31
0.0
  0
LINE
  5
599
330
1F
100
AcDbEntity
  8
0
  6
Continuous
 62
     7
370
    15
100
AcDbLine
 10
8.729760963777533
 20
19.13892630502614
 30
0.0
 11
8.736760964927533
 21
19.13892630502614
 31
0.0
  0
LINE
  5
59A
330
1F
100
AcDbEntity
  8
0
  6
Continuous
 62
     7
370
    15
100
AcDbLine
 10
8.736760964927533
 20
19.25892630978614
 30
0.0
 11
8.729760963777533
 21
19.25892630978614
 31
0.0
  0
LINE
  5
59B
330
1F
100
AcDbEntity
  8
0
  6
Continuous
 62
     7
370
    15
100
AcDbLine
 10
8.738760964327536
 20
19.13892630502614
 30
0.0
 11
8.736760964927533
 21
19.13892630502614
 31
0.0
  0
LINE
  5
59C
330
1F
100
AcDbEntity
  8
0
  6
Continuous
 62
     7
370
    15
100
AcDbLine
 10
8.736760964927533
 20
19.25892630978614
 30
0.0
 11
8.738760964327536
 21
19.25892630978614
 31
0.0
  0
LINE
  5
59D
330
1F
100
AcDbEntity
  8
0
  6
Continuous
 62
     7
370
    15
100
AcDbLine
 10
8.738760964327536
 20
19.25892630978614
 30
0.0
 11
8.738760964327536
 21
19.13892630502614
 31
0.0
  0
SPLINE
  5
59E
330
1F
100
AcDbEntity
  8
0
  6
Continuous
 62
     7
370
    15
100
AcDbSpline
210
0.0
220
0.0
230
1.0
 70
    24
 71
     3
 72
    10
 73
     6
 74
     0
 42
0.000000001
 43
0.0000000001
 40
0.0
 40
0.0
 40
0.0
 40
0.0
 40
0.5
 40
0.5
 40
1.0
 40
1.0
 40
1.0
 40
1.0
 10
8.749760964538602
 20
18.98837936891229
 30
0.0
 10
8.749760964538602
 20
18.99899985063413
 30
0.0
 10
8.749760964538602
 20
19.02392446858041
 30
0.0
 10
8.749760964538602
 20
19.09438193319758
 30
0.0
 10
8.749760964538602
 20
19.13788341794545
 30
0.0
 10
8.749760964538602
 20
19.18267632886305
 30
0.0
  0
LINE
  5
59F
330
1F
100
AcDbEntity
  8
0
  6
Continuous
 62
     7
370
    15
100
AcDbLine
 10
8.746760964587533
 20
18.98837936683614
 30
0.0
 11
8.749760964727531
 21
18.98837936683614
 31
0.0
  0
SPLINE
  5
5A0
330
1F
100
AcDbEntity
  8
0
  6
Continuous
 62
     7
370
    15
100
AcDbSpline
210
0.0
220
0.0
230
1.0
 70
    24
 71
     3
 72
    10
 73
     6
 74
     0
 42
0.000000001
 43
0.0000000001
 40
0.0
 40
0.0
 40
0.0
 40
0.0
 40
0.5000000000000005
 40
0.5000000000000005
 40
1.0
 40
1.0
 40
1.0
 40
1.0
 10
8.746760964538598
 20
19.18267632886305
 30
0.0
 10
8.746760964538598
 20
19.13788341794545
 30
0.0
 10
8.746760964538598
 20
19.09438193319758
 30
0.0
 10
8.746760964538598
 20
19.02392446858041
 30
0.0
 10
8.746760964538598
 20
18.99899985063413
 30
0.0
 10
8.746760964538598
 20
18.98837936891229
 30
0.0
  0
LINE
  5
5A1
330
1F
100
AcDbEntity
  8
0
  6
Continuous
 62
     7
370
    15
100
AcDbLine
 10
8.749760964727531
 20
19.18267635270614
 30
0.0
 11
8.746760964587533
 21
19.18267635270614
 31
0.0
  0
LINE
  5
5A2
330
1F
100
AcDbEntity
  8
0
  6
Continuous
 62
     7
370
    15
100
AcDbLine
 10
8.750760964427534
 20
19.37724540396614
 30
0.0
 11
8.750760964427534
 21
19.18267635270614
 31
0.0
  0
LINE
  5
5A3
330
1F
100
AcDbEntity
  8
0
  6
Continuous
 62
     7
370
    15
100
AcDbLine
 10
8.750760964427534
 20
19.18267635270614
 30
0.0
 11
8.749760964727531
 21
19.18267635270614
 31
0.0
  0
LINE
  5
5A4
330
1F
100
AcDbEntity
  8
0
  6
Continuous
 62
     7
370
    15
100
AcDbLine
 10
8.749760964727531
 20
19.18267635270614
 30
0.0
 11
8.749760964727531
 21
19.37822309895614
 31
0.0
  0
LINE
  5
5A5
330
1F
100
AcDbEntity
  8
0
  6
Continuous
 62
     7
370
    15
100
AcDbLine
 10
8.749760964727531
 20
19.37822309895614
 30
0.0
 11
8.750760964427534
 21
19.37724540396614
 31
0.0
  0
SPLINE
  5
5A6
330
1F
100
AcDbEntity
  8
0
  6
Continuous
 62
     7
370
    15
100
AcDbSpline
210
0.0
220
0.0
230
1.0
 70
    24
 71
     3
 72
    52
 73
    48
 74
     0
 42
0.000000001
 43
0.0000000001
 40
0.0
 40
0.0
 40
0.0
 40
0.0
 40
0.0062681101698013
 40
0.0125344544199418
 40
0.0187992683364553
 40
0.0250627876780565
 40
0.0313252483496651
 40
0.037586886375859
 40
0.0438479378742479
 40
0.0501086390288044
 40
0.0563692260631523
 40
0.0626299352138309
 40
0.0937617649584415
 40
0.1248467941864595
 40
0.1559081021125717
 40
0.1868901228609375
 40
0.2179209764471725
 40
0.2489990667636777
 40
0.2801570205315669
 40
0.3114295801956556
 40
0.3428502581004867
 40
0.3742340842247057
 40
0.405488559820163
 40
0.4366501690376034
 40
0.4677565379514513
 40
0.4988471076385785
 40
0.5299638975176632
 40
0.5611523991934133
 40
0.5924626533988464
 40
0.6239392311066727
 40
0.6553471217697365
 40
0.6866118384989413
 40
0.7177899639803264
 40
0.748941827366656
 40
0.7801328918279329
 40
0.8114354301349369
 40
0.8429295581706544
 40
0.874424673984828
 40
0.9057880856157911
 40
0.9214794690282332
 40
0.9371097792790191
 40
0.9528225944981599
 40
0.9684798803403539
 40
0.9763790764363522
 40
0.9842644223000132
 40
0.992137525221679
 40
1.0
 40
1.0
 40
1.0
 40
1.0
 10
8.750760964538603
 20
19.18267632886305
 30
0.0
 10
8.750760964538603
 20
19.18216688820115
 30
0.0
 10
8.750760964538603
 20
19.18114815040248
 30
0.0
 10
8.750760964538603
 20
19.1796202973418
 30
0.0
 10
8.750760964538603
 20
19.17809293231602
 30
0.0
 10
8.750760964538603
 20
19.17656605534289
 30
0.0
 10
8.750760964538603
 20
19.17503966641136
 30
0.0
 10
8.750760964538603
 20
19.17351376558684
 30
0.0
 10
8.750760964538603
 20
19.17198835265777
 30
0.0
 10
8.750760964538603
 20
19.17046342844399
 30
0.0
 10
8.750760964538603
 20
19.16893898991696
 30
0.0
 10
8.750760964538603
 20
19.16539711352413
 30
0.0
 10
8.750760964538603
 20
19.15984696072852
 30
0.0
 10
8.750760964538603
 20
19.15230831230123
 30
0.0
 10
8.750760964538603
 20
19.14481023085386
 30
0.0
 10
8.750760964538603
 20
19.13735242109085
 30
0.0
 10
8.750760964538603
 20
19.12993663061779
 30
0.0
 10
8.750760964538603
 20
19.12255818714184
 30
0.0
 10
8.750760964538603
 20
19.11522035439787
 30
0.0
 10
8.750760964538603
 20
19.10792432259463
 30
0.0
 10
8.750760964538603
 20
19.10068887670352
 30
0.0
 10
8.750760964538603
 20
19.09354259321353
 30
0.0
 10
8.750760964538603
 20
19.08651320591537
 30
0.0
 10
8.750760964538603
 20
19.07961152235811
 30
0.0
 10
8.750760964538603
 20
19.07283922977464
 30
0.0
 10
8.750760964538603
 20
19.0661986955284
 30
0.0
 10
8.750760964538603
 20
19.05969302850032
 30
0.0
 10
8.750760964538603
 20
19.05332616262715
 30
0.0
 10
8.750760964538603
 20
19.04710372217992
 30
0.0
 10
8.750760964538603
 20
19.04105149355133
 30
0.0
 10
8.750760964538603
 20
19.03520274209867
 30
0.0
 10
8.750760964538603
 20
19.02958808339429
 30
0.0
 10
8.750760964538603
 20
19.02421986065148
 30
0.0
 10
8.750760964538603
 20
19.01910400340086
 30
0.0
 10
8.750760964538603
 20
19.0142481914331
 30
0.0
 10
8.750760964538603
 20
19.00966216637546
 30
0.0
 10
8.750760964538603
 20
19.00537087212889
 30
0.0
 10
8.750760964538603
 20
19.00140774128212
 30
0.0
 10
8.750760964538603
 20
18.99839985217562
 30
0.0
 10
8.750760964538603
 20
18.99618373732276
 30
0.0
 10
8.750760964538603
 20
18.99461513043378
 30
0.0
 10
8.750760964538603
 20
18.9931441334023
 30
0.0
 10
8.750760964538603
 20
18.99199778698277
 30
0.0
 10
8.750760964538603
 20
18.99113049457719
 30
0.0
 10
8.750760964538603
 20
18.99050426440206
 30
0.0
 10
8.750760964538603
 20
18.98990313272063
 30
0.0
 10
8.750760964538603
 20
18.98952485801559
 30
0.0
 10
8.750760964538603
 20
18.98933584841045
 30
0.0
  0
LINE
  5
5A7
330
1F
100
AcDbEntity
  8
0
  6
Continuous
 62
     7
370
    15
100
AcDbLine
 10
8.750760964427534
 20
18.98933584257614
 30
0.0
 11
8.749760964727531
 21
18.98837936683614
 31
0.0
  0
LINE
  5
5A8
330
1F
100
AcDbEntity
  8
0
  6
Continuous
 62
     7
370
    15
100
AcDbLine
 10
8.745760964537534
 20
19.18267635270614
 30
0.0
 11
8.745760964537534
 21
19.37724540396614
 31
0.0
  0
LINE
  5
5A9
330
1F
100
AcDbEntity
  8
0
  6
Continuous
 62
     7
370
    15
100
AcDbLine
 10
8.745760964537534
 20
19.37724540396614
 30
0.0
 11
8.746760964587533
 21
19.37822309895614
 31
0.0
  0
LINE
  5
5AA
330
1F
100
AcDbEntity
  8
0
  6
Continuous
 62
     7
370
    15
100
AcDbLine
 10
8.746760964587533
 20
19.37822309895614
 30
0.0
 11
8.746760964587533
 21
19.18267635270614
 31
0.0
  0
LINE
  5
5AB
330
1F
100
AcDbEntity
  8
0
  6
Continuous
 62
     7
370
    15
100
AcDbLine
 10
8.745760964537534
 20
19.18267635270614
 30
0.0
 11
8.746760964587533
 21
19.18267635270614
 31
0.0
  0
SPLINE
  5
5AC
330
1F
100
AcDbEntity
  8
0
  6
Continuous
 62
     7
370
    15
100
AcDbSpline
210
0.0
220
0.0
230
1.0
 70
    24
 71
     3
 72
    50
 73
    46
 74
     0
 42
0.000000001
 43
0.0000000001
 40
0.0
 40
0.0
 40
0.0
 40
0.0
 40
0.0044777729180029
 40
0.0089589440100343
 40
0.0134438126872669
 40
0.0179326776209759
 40
0.0224258366855127
 40
0.0269235869020617
 40
0.0314262243832285
 40
0.0470015264585214
 40
0.0626362344370122
 40
0.0781525293522479
 40
0.0937334148804788
 40
0.1248080024258814
 40
0.1559485935506885
 40
0.1872357404618553
 40
0.2186920835281244
 40
0.2500265560944103
 40
0.2812467583876289
 40
0.3124214939370071
 40
0.3436129812670718
 40
0.3748784586153049
 40
0.406271507952167
 40
0.4376653337322942
 40
0.468930702848332
 40
0.5001183762327616
 40
0.5312744235285109
 40
0.5624413220767323
 40
0.5936588728754613
 40
0.624964980201198
 40
0.6563683252984433
 40
0.6876791225326961
 40
0.7188857760016765
 40
0.7500239427044883
 40
0.8122192263059929
 40
0.8433467726965091
 40
0.8745321161222999
 40
0.9058053307093082
 40
0.9214916479695768
 40
0.9371901627389771
 40
0.9528874558024108
 40
0.9685928004363637
 40
0.9790603305317723
 40
0.9895290300583528
 40
1.0
 40
1.0
 40
1.0
 40
1.0
 10
8.745760964538604
 20
18.98933584841045
 30
0.0
 10
8.745760964538604
 20
18.98944286806877
 30
0.0
 10
8.745760964538604
 20
18.98965698860244
 30
0.0
 10
8.745760964538604
 20
18.98998912127255
 30
0.0
 10
8.745760964538604
 20
18.99032941156983
 30
0.0
 10
8.745760964538604
 20
18.9906786399195
 30
0.0
 10
8.745760964538604
 20
18.99103659660395
 30
0.0
 10
8.745760964538604
 20
18.99140333910152
 30
0.0
 10
8.745760964538604
 20
18.99208650715392
 30
0.0
 10
8.745760964538604
 20
18.99312843603904
 30
0.0
 10
8.745760964538604
 20
18.9945894799967
 30
0.0
 10
8.745760964538604
 20
18.99614609883514
 30
0.0
 10
8.745760964538604
 20
18.99834071093523
 30
0.0
 10
8.745760964538604
 20
19.0013137703394
 30
0.0
 10
8.745760964538604
 20
19.00523093382053
 30
0.0
 10
8.745760964538604
 20
19.00949115268574
 30
0.0
 10
8.745760964538604
 20
19.01406962663743
 30
0.0
 10
8.745760964538604
 20
19.01893454039234
 30
0.0
 10
8.745760964538604
 20
19.02405349485349
 30
0.0
 10
8.745760964538604
 20
19.02941376607022
 30
0.0
 10
8.745760964538604
 20
19.03500808976773
 30
0.0
 10
8.745760964538604
 20
19.04083081462937
 30
0.0
 10
8.745760964538604
 20
19.04686631891811
 30
0.0
 10
8.745760964538604
 20
19.05308689072487
 30
0.0
 10
8.745760964538604
 20
19.05946350885988
 30
0.0
 10
8.745760964538604
 20
19.06597889939356
 30
0.0
 10
8.745760964538604
 20
19.07262904400853
 30
0.0
 10
8.745760964538604
 20
19.07941076027751
 30
0.0
 10
8.745760964538604
 20
19.08632161494203
 30
0.0
 10
8.745760964538604
 20
19.09335775805338
 30
0.0
 10
8.745760964538604
 20
19.10049870670636
 30
0.0
 10
8.745760964538604
 20
19.10771982710355
 30
0.0
 10
8.745760964538604
 20
19.11499850454043
 30
0.0
 10
8.745760964538604
 20
19.1247683054571
 30
0.0
 10
8.745760964538604
 20
19.13465454214408
 30
0.0
 10
8.745760964538604
 20
19.14462923253883
 30
0.0
 10
8.745760964538604
 20
19.15216344302
 30
0.0
 10
8.745760964538604
 20
19.15847876869605
 30
0.0
 10
8.745760964538604
 20
19.16355315823483
 30
0.0
 10
8.745760964538604
 20
19.1673707054125
 30
0.0
 10
8.745760964538604
 20
19.17119341428433
 30
0.0
 10
8.745760964538604
 20
19.1745940102539
 30
0.0
 10
8.745760964538604
 20
19.17757109753718
 30
0.0
 10
8.745760964538604
 20
19.18012343995457
 30
0.0
 10
8.745760964538604
 20
19.18182530438449
 30
0.0
 10
8.745760964538604
 20
19.18267632886305
 30
0.0
  0
LINE
  5
5AD
330
1F
100
AcDbEntity
  8
0
  6
Continuous
 62
     7
370
    15
100
AcDbLine
 10
8.745760964537534
 20
18.98933584257614
 30
0.0
 11
8.746760964587533
 21
18.98837936683614
 31
0.0
  0
LINE
  5
5AE
330
1F
100
AcDbEntity
  8
0
  6
Continuous
 62
     7
370
    15
100
AcDbLine
 10
8.749760964727531
 20
19.37822309895614
 30
0.0
 11
8.746760964587533
 21
19.37822309895614
 31
0.0
  0
LINE
  5
5AF
330
1F
100
AcDbEntity
  8
0
  6
Continuous
 62
     7
370
    15
100
AcDbLine
 10
8.746760964587533
 20
18.98837936683614
 30
0.0
 11
8.746760964587533
 21
18.93827492758614
 31
0.0
  0
LINE
  5
5B0
330
1F
100
AcDbEntity
  8
0
  6
Continuous
 62
     7
370
    15
100
AcDbLine
 10
8.745760964537534
 20
18.93832040592614
 30
0.0
 11
8.746760964587533
 21
18.93827492758614
 31
0.0
  0
LINE
  5
5B1
330
1F
100
AcDbEntity
  8
0
  6
Continuous
 62
     7
370
    15
100
AcDbLine
 10
8.745760964537534
 20
18.93832040592614
 30
0.0
 11
8.745760964537534
 21
18.98933584257614
 31
0.0
  0
LINE
  5
5B2
330
1F
100
AcDbEntity
  8
0
  6
Continuous
 62
     7
370
    15
100
AcDbLine
 10
8.750760964427534
 20
18.93832040592614
 30
0.0
 11
8.749760964727531
 21
18.93827492758614
 31
0.0
  0
LINE
  5
5B3
330
1F
100
AcDbEntity
  8
0
  6
Continuous
 62
     7
370
    15
100
AcDbLine
 10
8.749760964727531
 20
18.93827492758614
 30
0.0
 11
8.749760964727531
 21
18.98837936683614
 31
0.0
  0
LINE
  5
5B4
330
1F
100
AcDbEntity
  8
0
  6
Continuous
 62
     7
370
    15
100
AcDbLine
 10
8.750760964427534
 20
18.98933584257614
 30
0.0
 11
8.750760964427534
 21
18.93832040592614
 31
0.0
  0
LINE
  5
5B5
330
1F
100
AcDbEntity
  8
0
  6
Continuous
 62
     7
370
    15
100
AcDbLine
 10
8.749760964727531
 20
18.93827492758614
 30
0.0
 11
8.746760964587533
 21
18.93827492758614
 31
0.0
  0
LINE
  5
5B6
330
1F
100
AcDbEntity
  8
0
  6
Continuous
 62
     7
370
    15
100
AcDbLine
 10
8.749760964727531
 20
19.37822309895614
 30
0.0
 11
8.749760964727531
 21
19.42860982581614
 31
0.0
  0
LINE
  5
5B7
330
1F
100
AcDbEntity
  8
0
  6
Continuous
 62
     7
370
    15
100
AcDbLine
 10
8.746760964587533
 20
19.42860982581614
 30
0.0
 11
8.746760964587533
 21
19.37822309895614
 31
0.0
  0
LINE
  5
5B8
330
1F
100
AcDbEntity
  8
0
  6
Continuous
 62
     7
370
    15
100
AcDbLine
 10
8.746760964587533
 20
19.42860982581614
 30
0.0
 11
8.749760964727531
 21
19.42860982581614
 31
0.0
  0
LINE
  5
5B9
330
1F
100
AcDbEntity
  8
0
  6
Continuous
 62
     7
370
    15
100
AcDbLine
 10
8.749760964727531
 20
19.42860982581614
 30
0.0
 11
8.750760964427534
 21
19.42854819461613
 31
0.0
  0
LINE
  5
5BA
330
1F
100
AcDbEntity
  8
0
  6
Continuous
 62
     7
370
    15
100
AcDbLine
 10
8.750760964427534
 20
19.42854819461613
 30
0.0
 11
8.750760964427534
 21
19.37724540396614
 31
0.0
  0
LINE
  5
5BB
330
1F
100
AcDbEntity
  8
0
  6
Continuous
 62
     7
370
    15
100
AcDbLine
 10
8.745760964537534
 20
19.42854819461613
 30
0.0
 11
8.746760964587533
 21
19.42860982581614
 31
0.0
  0
LINE
  5
5BC
330
1F
100
AcDbEntity
  8
0
  6
Continuous
 62
     7
370
    15
100
AcDbLine
 10
8.745760964537534
 20
19.37724540396614
 30
0.0
 11
8.745760964537534
 21
19.42854819461613
 31
0.0
  0
SPLINE
  5
5BD
330
1F
100
AcDbEntity
  8
0
  6
Continuous
 62
     7
370
    15
100
AcDbSpline
210
0.0
220
0.0
230
1.0
 70
    24
 71
     3
 72
     9
 73
     5
 74
     0
 42
0.000000001
 43
0.0000000001
 40
30.74063741587977
 40
30.74063741587977
 40
30.74063741587977
 40
30.74063741587977
 40
292.6714553857298
 40
452.8074880359715
 40
452.8074880359715
 40
452.8074880359715
 40
452.8074880359715
 10
8.749760964538602
 20
18.58267632886305
 30
0.0
 10
8.749760964538602
 20
18.58267632886305
 30
0.0
 10
8.749760964538602
 20
18.66602710220345
 30
0.0
 10
8.749760964538602
 20
18.86150809372749
 30
0.0
 10
8.749760964538602
 20
18.93827492500219
 30
0.0
  0
LINE
  5
5BE
330
1F
100
AcDbEntity
  8
0
  6
Continuous
 62
     7
370
    15
100
AcDbLine
 10
8.749760964727531
 20
18.58267632886614
 30
0.0
 11
8.746760964587533
 21
18.58267632886614
 31
0.0
  0
SPLINE
  5
5BF
330
1F
100
AcDbEntity
  8
0
  6
Continuous
 62
     7
370
    15
100
AcDbSpline
210
0.0
220
0.0
230
1.0
 70
    24
 71
     3
 72
     9
 73
     5
 74
     0
 42
0.000000001
 43
0.0000000001
 40
30.74063741587987
 40
30.74063741587987
 40
30.74063741587987
 40
30.74063741587987
 40
190.8766700661214
 40
452.8074880359715
 40
452.8074880359715
 40
452.8074880359715
 40
452.8074880359715
 10
8.746760964538598
 20
18.93827492500219
 30
0.0
 10
8.746760964538598
 20
18.86150809372749
 30
0.0
 10
8.746760964538598
 20
18.66602710220345
 30
0.0
 10
8.746760964538598
 20
18.58267632886305
 30
0.0
 10
8.746760964538598
 20
18.58267632886305
 30
0.0
  0
LINE
  5
5C0
330
1F
100
AcDbEntity
  8
0
  6
Continuous
 62
     7
370
    15
100
AcDbLine
 10
8.745760964537534
 20
18.58367632890614
 30
0.0
 11
8.746760964587533
 21
18.58267632886614
 31
0.0
  0
SPLINE
  5
5C1
330
1F
100
AcDbEntity
  8
0
  6
Continuous
 62
     7
370
    15
100
AcDbSpline
210
0.0
220
0.0
230
1.0
 70
    24
 71
     3
 72
    57
 73
    53
 74
     0
 42
0.000000001
 43
0.0000000001
 40
0.0
 40
0.0
 40
0.0
 40
0.0
 40
0.0034805977535972
 40
0.0069616376654461
 40
0.0104431843090236
 40
0.0139253022296156
 40
0.0174080559407465
 40
0.0208915099206153
 40
0.0243757286085446
 40
0.0278607764014377
 40
0.0313467176502495
 40
0.0469449889720129
 40
0.0625460127026041
 40
0.0781010476180904
 40
0.0936461077728708
 40
0.1091810181783556
 40
0.1246931812055266
 40
0.1557318918920239
 40
0.1868113092039717
 40
0.2179822730048242
 40
0.2493008226501912
 40
0.2807000894297689
 40
0.3119450590292797
 40
0.3430837767934934
 40
0.3741811854645583
 40
0.4053105126577273
 40
0.4365568995364473
 40
0.4680077340049771
 40
0.4993700640735669
 40
0.5305669071019996
 40
0.5617172036159729
 40
0.5929576091443224
 40
0.6244385603460689
 40
0.6558420218306388
 40
0.6714678705738596
 40
0.687067929646231
 40
0.7182530055493394
 40
0.7495137305836633
 40
0.7809334843599977
 40
0.8123369912616452
 40
0.8279926072700513
 40
0.8436281371462877
 40
0.8748646358705878
 40
0.9060924834588275
 40
0.9215701307392516
 40
0.9373444227887087
 40
0.9528415405020103
 40
0.9686418667858616
 40
0.9763640421738399
 40
0.9841642818633092
 40
0.9920428492622683
 40
1.0
 40
1.0
 40
1.0
 40
1.0
 10
8.745760964538604
 20
18.58367632886305
 30
0.0
 10
8.745760964538604
 20
18.58367716861025
 30
0.0
 10
8.745760964538604
 20
18.58367884821133
 30
0.0
 10
8.745760964538604
 20
18.58369240085608
 30
0.0
 10
8.745760964538604
 20
18.58371403006578
 30
0.0
 10
8.745760964538604
 20
18.58374452827781
 30
0.0
 10
8.745760964538604
 20
18.58378368310579
 30
0.0
 10
8.745760964538604
 20
18.58383155149043
 30
0.0
 10
8.745760964538604
 20
18.58388811810326
 30
0.0
 10
8.745760964538604
 20
18.58395338730057
 30
0.0
 10
8.745760964538604
 20
18.58411302193358
 30
0.0
 10
8.745760964538604
 20
18.5844371629481
 30
0.0
 10
8.745760964538604
 20
18.58504758300557
 30
0.0
 10
8.745760964538604
 20
18.58582999648047
 30
0.0
 10
8.745760964538604
 20
18.58678360137478
 30
0.0
 10
8.745760964538604
 20
18.58790828634513
 30
0.0
 10
8.745760964538604
 20
18.5896364297863
 30
0.0
 10
8.745760964538604
 20
18.59222835748429
 30
0.0
 10
8.745760964538604
 20
18.59603921277745
 30
0.0
 10
8.745760964538604
 20
18.6005686379901
 30
0.0
 10
8.745760964538604
 20
18.60583553559613
 30
0.0
 10
8.745760964538604
 20
18.6118437427646
 30
0.0
 10
8.745760964538604
 20
18.61858917691849
 30
0.0
 10
8.745760964538604
 20
18.6260713194233
 30
0.0
 10
8.745760964538604
 20
18.63431596840884
 30
0.0
 10
8.745760964538604
 20
18.64335895771849
 30
0.0
 10
8.745760964538604
 20
18.65324544986395
 30
0.0
 10
8.745760964538604
 20
18.66398556400363
 30
0.0
 10
8.745760964538604
 20
18.67555966186775
 30
0.0
 10
8.745760964538604
 20
18.68793332869807
 30
0.0
 10
8.745760964538604
 20
18.70111761599314
 30
0.0
 10
8.745760964538604
 20
18.71515396576423
 30
0.0
 10
8.745760964538604
 20
18.73001442871511
 30
0.0
 10
8.745760964538604
 20
18.7430249405588
 30
0.0
 10
8.745760964538604
 20
18.75370447656248
 30
0.0
 10
8.745760964538604
 20
18.76452881933819
 30
0.0
 10
8.745760964538604
 20
18.77837316860405
 30
0.0
 10
8.745760964538604
 20
18.79541268588524
 30
0.0
 10
8.745760964538604
 20
18.8127986358733
 30
0.0
 10
8.745760964538604
 20
18.82749790688903
 30
0.0
 10
8.745760964538604
 20
18.83932859224796
 30
0.0
 10
8.745760964538604
 20
18.8511791082057
 30
0.0
 10
8.745760964538604
 20
18.86606395561877
 30
0.0
 10
8.745760964538604
 20
18.88099772121056
 30
0.0
 10
8.745760964538604
 20
18.89300211802939
 30
0.0
 10
8.745760964538604
 20
18.90199836105869
 30
0.0
 10
8.745760964538604
 20
18.9110683557834
 30
0.0
 10
8.745760964538604
 20
18.91859474624203
 30
0.0
 10
8.745760964538604
 20
18.92464023622303
 30
0.0
 10
8.745760964538604
 20
18.9291584654659
 30
0.0
 10
8.745760964538604
 20
18.93372347091769
 30
0.0
 10
8.745760964538604
 20
18.93678303910188
 30
0.0
 10
8.745760964538604
 20
18.93832041461107
 30
0.0
  0
LINE
  5
5C2
330
1F
100
AcDbEntity
  8
0
  6
Continuous
 62
     7
370
    15
100
AcDbLine
 10
8.750760964427534
 20
18.58367632890614
 30
0.0
 11
8.749760964727531
 21
18.58267632886614
 31
0.0
  0
SPLINE
  5
5C3
330
1F
100
AcDbEntity
  8
0
  6
Continuous
 62
     7
370
    15
100
AcDbSpline
210
0.0
220
0.0
230
1.0
 70
    24
 71
     3
 72
    56
 73
    52
 74
     0
 42
0.000000001
 43
0.0000000001
 40
0.0
 40
0.0
 40
0.0
 40
0.0
 40
0.0045469608762406
 40
0.0090684155414996
 40
0.0135644104934992
 40
0.018034993024366
 40
0.0224802112373071
 40
0.0269001140636716
 40
0.0312947512804199
 40
0.047055162250985
 40
0.062515707323709
 40
0.0782426262544787
 40
0.0936764832171934
 40
0.1247966104876419
 40
0.1559065043305299
 40
0.1714707513637204
 40
0.1870491937516287
 40
0.2026494772080995
 40
0.2182805644771453
 40
0.2496760802705006
 40
0.2810685651171994
 40
0.3122739776094033
 40
0.3433956805534792
 40
0.3745658988301662
 40
0.405946464403461
 40
0.4374384166778948
 40
0.4687036920629013
 40
0.4998780698077961
 40
0.5310864086974504
 40
0.5624363743714623
 40
0.5939031866939574
 40
0.6251763072834047
 40
0.6563159628298616
 40
0.6874011885425882
 40
0.7185001776536695
 40
0.7496736216218673
 40
0.7809773559966546
 40
0.8123942986173814
 40
0.8437041405487445
 40
0.8749324952099911
 40
0.8905188553739723
 40
0.9061302047987588
 40
0.9217305280133968
 40
0.9373428622129488
 40
0.9529802947565496
 40
0.9686168894284993
 40
0.9748979325420316
 40
0.9811763879722875
 40
0.9874526327104467
 40
0.9937270441461699
 40
1.0
 40
1.0
 40
1.0
 40
1.0
 10
8.750760964538603
 20
18.93832041461107
 30
0.0
 10
8.750760964538603
 20
18.93744188655918
 30
0.0
 10
8.750760964538603
 20
18.93568975856506
 30
0.0
 10
8.750760964538603
 20
18.93306945720629
 30
0.0
 10
8.750760964538603
 20
18.93046431970274
 30
0.0
 10
8.750760964538603
 20
18.92787437991175
 30
0.0
 10
8.750760964538603
 20
18.92529962913552
 30
0.0
 10
8.750760964538603
 20
18.92274006854103
 30
0.0
 10
8.750760964538603
 20
18.917997360578
 30
0.0
 10
8.750760964538603
 20
18.91112754212825
 30
0.0
 10
8.750760964538603
 20
18.90208135516923
 30
0.0
 10
8.750760964538603
 20
18.89310958236005
 30
0.0
 10
8.750760964538603
 20
18.88114315032846
 30
0.0
 10
8.750760964538603
 20
18.86626213057939
 30
0.0
 10
8.750760964538603
 20
18.85143438857466
 30
0.0
 10
8.750760964538603
 20
18.8396345743855
 30
0.0
 10
8.750760964538603
 20
18.83081240622996
 30
0.0
 10
8.750760964538603
 20
18.822021464817
 30
0.0
 10
8.750760964538603
 20
18.81032825434559
 30
0.0
 10
8.750760964538603
 20
18.79583091156019
 30
0.0
 10
8.750760964538603
 20
18.7787597923882
 30
0.0
 10
8.750760964538603
 20
18.762126654834
 30
0.0
 10
8.750760964538603
 20
18.74601848108033
 30
0.0
 10
8.750760964538603
 20
18.73047794119739
 30
0.0
 10
8.750760964538603
 20
18.71560459734369
 30
0.0
 10
8.750760964538603
 20
18.70150362718518
 30
0.0
 10
8.750760964538603
 20
18.68825009905353
 30
0.0
 10
8.750760964538603
 20
18.67586485700394
 30
0.0
 10
8.750760964538603
 20
18.66430280169778
 30
0.0
 10
8.750760964538603
 20
18.65354121849094
 30
0.0
 10
8.750760964538603
 20
18.64360347351652
 30
0.0
 10
8.750760964538603
 20
18.63450283525668
 30
0.0
 10
8.750760964538603
 20
18.62623092267113
 30
0.0
 10
8.750760964538603
 20
18.61874601125047
 30
0.0
 10
8.750760964538603
 20
18.61201371399812
 30
0.0
 10
8.750760964538603
 20
18.60600867347767
 30
0.0
 10
8.750760964538603
 20
18.60071743399531
 30
0.0
 10
8.750760964538603
 20
18.59614461484857
 30
0.0
 10
8.750760964538603
 20
18.59229117160718
 30
0.0
 10
8.750760964538603
 20
18.58967398626861
 30
0.0
 10
8.750760964538603
 20
18.58793136278483
 30
0.0
 10
8.750760964538603
 20
18.58679879846932
 30
0.0
 10
8.750760964538603
 20
18.58583915201812
 30
0.0
 10
8.750760964538603
 20
18.58505268978641
 30
0.0
 10
8.750760964538603
 20
18.58443951760748
 30
0.0
 10
8.750760964538603
 20
18.58408804693233
 30
0.0
 10
8.750760964538603
 20
18.58389777848755
 30
0.0
 10
8.750760964538603
 20
18.58379874128173
 30
0.0
 10
8.750760964538603
 20
18.58372850628378
 30
0.0
 10
8.750760964538603
 20
18.58368450117221
 30
0.0
 10
8.750760964538603
 20
18.58367905275542
 30
0.0
 10
8.750760964538603
 20
18.58367632886305
 30
0.0
  0
SPLINE
  5
5C4
330
1F
100
AcDbEntity
  8
0
  6
Continuous
 62
     7
370
    15
100
AcDbSpline
210
0.0
220
0.0
230
1.0
 70
    24
 71
     3
 72
     9
 73
     5
 74
     0
 42
0.000000001
 43
0.0000000001
 40
0.0
 40
0.0
 40
0.0
 40
0.0
 40
198.7290617106926
 40
394.6121626329409
 40
394.6121626329409
 40
394.6121626329409
 40
394.6121626329409
 10
8.749760964538602
 20
19.42860980420675
 30
0.0
 10
8.749760964538602
 20
19.52472036174336
 30
0.0
 10
8.749760964538602
 20
19.70806695751061
 30
0.0
 10
8.749760964538602
 20
19.78267632886305
 30
0.0
 10
8.749760964538602
 20
19.78267632886305
 30
0.0
  0
LWPOLYLINE
  5
5C5
330
1F
100
AcDbEntity
  8
0
  6
Continuous
 62
     7
370
    15
100
AcDbPolyline
 90
        3
 70
   128
 43
0.0
 10
8.749760964727531
 20
19.78267637654614
 10
8.750260964347532
 20
19.78217629357614
 10
8.750760964427534
 20
19.78167632981614
  0
SPLINE
  5
5C6
330
1F
100
AcDbEntity
  8
0
  6
Continuous
 62
     7
370
    15
100
AcDbSpline
210
0.0
220
0.0
230
1.0
 70
    24
 71
     3
 72
    56
 73
    52
 74
     0
 42
0.000000001
 43
0.0000000001
 40
0.0
 40
0.0
 40
0.0
 40
0.0
 40
0.0034856436752864
 40
0.0069728672026867
 40
0.0104617799921554
 40
0.0139524912948064
 40
0.0174451101929787
 40
0.0209397455903782
 40
0.0244365062023047
 40
0.0279355005459637
 40
0.0314368369308702
 40
0.047046825805384
 40
0.0626890467728488
 40
0.0782523593724065
 40
0.0938372980943871
 40
0.1093916675239738
 40
0.1249564805666258
 40
0.1561171845692444
 40
0.1873953305292184
 40
0.2188585689358363
 40
0.2502359374629046
 40
0.2814306366514094
 40
0.3125213266056955
 40
0.3435890801462005
 40
0.3747208792632502
 40
0.4060136828790182
 40
0.4375321681414725
 40
0.4688673217586624
 40
0.4813357730355226
 40
0.4999889978679612
 40
0.530817752842264
 40
0.5620523270498349
 40
0.593224242536375
 40
0.6246205905904234
 40
0.6560643573882215
 40
0.6873156167874438
 40
0.7184567464851525
 40
0.7495552937026944
 40
0.7806661508660496
 40
0.8118341362341434
 40
0.8430960264471249
 40
0.8744766314197271
 40
0.9058654032503056
 40
0.9214688565748263
 40
0.9372329001736725
 40
0.9528413467504428
 40
0.9686038969106462
 40
0.9763976605925217
 40
0.9842280580763919
 40
0.9920954018451419
 40
1.0
 40
1.0
 40
1.0
 40
1.0
 10
8.750760964538603
 20
19.78167632886304
 30
0.0
 10
8.750760964538603
 20
19.7816753066122
 30
0.0
 10
8.750760964538603
 20
19.78167326164722
 30
0.0
 10
8.750760964538603
 20
19.7816567783347
 30
0.0
 10
8.750760964538603
 20
19.78163047542833
 30
0.0
 10
8.750760964538603
 20
19.7815933884624
 30
0.0
 10
8.750760964538603
 20
19.78154577606634
 30
0.0
 10
8.750760964538603
 20
19.78148756885902
 30
0.0
 10
8.750760964538603
 20
19.781418785558
 30
0.0
 10
8.750760964538603
 20
19.78133942073873
 30
0.0
 10
8.750760964538603
 20
19.78114581588534
 30
0.0
 10
8.750760964538603
 20
19.78075332238699
 30
0.0
 10
8.750760964538603
 20
19.78001699697598
 30
0.0
 10
8.750760964538603
 20
19.77907571981575
 30
0.0
 10
8.750760964538603
 20
19.77793281978018
 30
0.0
 10
8.750760964538603
 20
19.77658818032633
 30
0.0
 10
8.750760964538603
 20
19.77452771426171
 30
0.0
 10
8.750760964538603
 20
19.7714470599384
 30
0.0
 10
8.750760964538603
 20
19.76694265467535
 30
0.0
 10
8.750760964538603
 20
19.76163243728647
 30
0.0
 10
8.750760964538603
 20
19.75553564576292
 30
0.0
 10
8.750760964538603
 20
19.74868139923834
 30
0.0
 10
8.750760964538603
 20
19.74107646200163
 30
0.0
 10
8.750760964538603
 20
19.73270697404326
 30
0.0
 10
8.750760964538603
 20
19.72354928373583
 30
0.0
 10
8.750760964538603
 20
19.71357357951686
 30
0.0
 10
8.750760964538603
 20
19.70280138472255
 30
0.0
 10
8.750760964538603
 20
19.69356851688859
 30
0.0
 10
8.750760964538603
 20
19.68556661419318
 30
0.0
 10
8.750760964538603
 20
19.67738595090639
 30
0.0
 10
8.750760964538603
 20
19.66623629958972
 30
0.0
 10
8.750760964538603
 20
19.65272386873839
 30
0.0
 10
8.750760964538603
 20
19.6385625365224
 30
0.0
 10
8.750760964538603
 20
19.62387438359465
 30
0.0
 10
8.750760964538603
 20
19.60874625879583
 30
0.0
 10
8.750760964538603
 20
19.59329787595792
 30
0.0
 10
8.750760964538603
 20
19.57760462537762
 30
0.0
 10
8.750760964538603
 20
19.56168391495159
 30
0.0
 10
8.750760964538603
 20
19.54555067306417
 30
0.0
 10
8.750760964538603
 20
19.52921793281821
 30
0.0
 10
8.750760964538603
 20
19.51269806496088
 30
0.0
 10
8.750760964538603
 20
19.49602627537215
 30
0.0
 10
8.750760964538603
 20
19.48205582149401
 30
0.0
 10
8.750760964538603
 20
19.47083488889863
 30
0.0
 10
8.750760964538603
 20
19.46242023071972
 30
0.0
 10
8.750760964538603
 20
19.45396393944959
 30
0.0
 10
8.750760964538603
 20
19.44692815432588
 30
0.0
 10
8.750760964538603
 20
19.44128497038996
 30
0.0
 10
8.750760964538603
 20
19.43705910931873
 30
0.0
 10
8.750760964538603
 20
19.43281144614658
 30
0.0
 10
8.750760964538603
 20
19.42997151250558
 30
0.0
 10
8.750760964538603
 20
19.42854819162808
 30
0.0
  0
SPLINE
  5
5C7
330
1F
100
AcDbEntity
  8
0
  6
Continuous
 62
     7
370
    15
100
AcDbSpline
210
0.0
220
0.0
230
1.0
 70
    24
 71
     3
 72
     9
 73
     5
 74
     0
 42
0.000000001
 43
0.0000000001
 40
0.0
 40
0.0
 40
0.0
 40
0.0
 40
195.8831009222482
 40
394.6121626329409
 40
394.6121626329409
 40
394.6121626329409
 40
394.6121626329409
 10
8.746760964538598
 20
19.78267632886305
 30
0.0
 10
8.746760964538598
 20
19.78267632886305
 30
0.0
 10
8.746760964538598
 20
19.70806695751061
 30
0.0
 10
8.746760964538598
 20
19.52472036174336
 30
0.0
 10
8.746760964538598
 20
19.42860980420675
 30
0.0
  0
LINE
  5
5C8
330
1F
100
AcDbEntity
  8
0
  6
Continuous
 62
     7
370
    15
100
AcDbLine
 10
8.749760964727531
 20
19.78267637654614
 30
0.0
 11
8.746760964587533
 21
19.78267637654614
 31
0.0
  0
LWPOLYLINE
  5
5C9
330
1F
100
AcDbEntity
  8
0
  6
Continuous
 62
     7
370
    15
100
AcDbPolyline
 90
        3
 70
   128
 43
0.0
 10
8.746760964587533
 20
19.78267637654614
 10
8.746260964557531
 20
19.78217629357614
 10
8.745760964537534
 20
19.78167632981614
  0
SPLINE
  5
5CA
330
1F
100
AcDbEntity
  8
0
  6
Continuous
 62
     7
370
    15
100
AcDbSpline
210
0.0
220
0.0
230
1.0
 70
    24
 71
     3
 72
    61
 73
    57
 74
     0
 42
0.000000001
 43
0.0000000001
 40
0.0
 40
0.0
 40
0.0
 40
0.0
 40
0.0048868662029504
 40
0.0097593086496003
 40
0.0146173993187807
 40
0.0194612108291234
 40
0.0242908164433709
 40
0.0291062900726526
 40
0.0339077062807236
 40
0.0386951402881685
 40
0.0434686679765604
 40
0.0482283658925774
 40
0.0529743112520731
 40
0.0577065819440975
 40
0.0624252565348649
 40
0.0780401219932078
 40
0.0934995438317556
 40
0.1090838837367396
 40
0.1245077466613055
 40
0.1554731592104436
 40
0.1864258533576324
 40
0.2174013194547212
 40
0.248442973691779
 40
0.2796042989058957
 40
0.3109516444144053
 40
0.3424036246956941
 40
0.3736846670662345
 40
0.4048566815792622
 40
0.4360064759048178
 40
0.4672360496302357
 40
0.4986649581924453
 40
0.5065637141376185
 40
0.5144455871588523
 40
0.5301538076567299
 40
0.5614063329303002
 40
0.592547447198789
 40
0.6236857038934254
 40
0.6549185957493257
 40
0.68633697328477
 40
0.717787420119707
 40
0.7490822659107518
 40
0.7803050278976497
 40
0.8115333633093245
 40
0.8428421396028197
 40
0.8743022859083151
 40
0.8900331496973937
 40
0.9057556664434704
 40
0.9214571419331599
 40
0.9371389172856458
 40
0.9528484027497972
 40
0.9685274985504518
 40
0.9748350895867368
 40
0.9811354988877225
 40
0.9874293618418835
 40
0.9937173158221915
 40
1.0
 40
1.0
 40
1.0
 40
1.0
 10
8.745760964538604
 20
19.42854819162808
 30
0.0
 10
8.745760964538604
 20
19.42942816984941
 30
0.0
 10
8.745760964538604
 20
19.4311855290056
 30
0.0
 10
8.745760964538604
 20
19.43381685802567
 30
0.0
 10
8.745760964538604
 20
19.43643977881938
 30
0.0
 10
8.745760964538604
 20
19.43905423529708
 30
0.0
 10
8.745760964538604
 20
19.44166024242284
 30
0.0
 10
8.745760964538604
 20
19.44425779620646
 30
0.0
 10
8.745760964538604
 20
19.44684689771183
 30
0.0
 10
8.745760964538604
 20
19.44942754666298
 30
0.0
 10
8.745760964538604
 20
19.45199974310973
 30
0.0
 10
8.745760964538604
 20
19.45456348713239
 30
0.0
 10
8.745760964538604
 20
19.45711877836656
 30
0.0
 10
8.745760964538604
 20
19.45966561818847
 30
0.0
 10
8.745760964538604
 20
19.46416026160448
 30
0.0
 10
8.745760964538604
 20
19.47057204879405
 30
0.0
 10
8.745760964538604
 20
19.47891532903723
 30
0.0
 10
8.745760964538604
 20
19.48720754773595
 30
0.0
 10
8.745760964538604
 20
19.49824101111351
 30
0.0
 10
8.745760964538604
 20
19.51195717092478
 30
0.0
 10
8.745760964538604
 20
19.52832172357242
 30
0.0
 10
8.745760964538604
 20
19.54456376468769
 30
0.0
 10
8.745760964538604
 20
19.56067445194694
 30
0.0
 10
8.745760964538604
 20
19.57664370503079
 30
0.0
 10
8.745760964538604
 20
19.59243215517486
 30
0.0
 10
8.745760964538604
 20
19.60793813601738
 30
0.0
 10
8.745760964538604
 20
19.62305634868453
 30
0.0
 10
8.745760964538604
 20
19.63770674508388
 30
0.0
 10
8.745760964538604
 20
19.65186265707284
 30
0.0
 10
8.745760964538604
 20
19.66549557143148
 30
0.0
 10
8.745760964538604
 20
19.67526933619001
 30
0.0
 10
8.745760964538604
 20
19.68158128013128
 30
0.0
 10
8.745760964538604
 20
19.68572959632575
 30
0.0
 10
8.745760964538604
 20
19.69279242583251
 30
0.0
 10
8.745760964538604
 20
19.70238632904818
 30
0.0
 10
8.745760964538604
 20
19.71311874307668
 30
0.0
 10
8.745760964538604
 20
19.72308601399179
 30
0.0
 10
8.745760964538604
 20
19.73231112802301
 30
0.0
 10
8.745760964538604
 20
19.74078634339448
 30
0.0
 10
8.745760964538604
 20
19.74848142940146
 30
0.0
 10
8.745760964538604
 20
19.75537636146393
 30
0.0
 10
8.745760964538604
 20
19.76147341604713
 30
0.0
 10
8.745760964538604
 20
19.76678739796979
 30
0.0
 10
8.745760964538604
 20
19.7713232202509
 30
0.0
 10
8.745760964538604
 20
19.77444258102952
 30
0.0
 10
8.745760964538604
 20
19.77653541000474
 30
0.0
 10
8.745760964538604
 20
19.77789944253314
 30
0.0
 10
8.745760964538604
 20
19.77905679267503
 30
0.0
 10
8.745760964538604
 20
19.78000721138268
 30
0.0
 10
8.745760964538604
 20
19.78074938621177
 30
0.0
 10
8.745760964538604
 20
19.78117588668872
 30
0.0
 10
8.745760964538604
 20
19.78140701753903
 30
0.0
 10
8.745760964538604
 20
19.7815274495908
 30
0.0
 10
8.745760964538604
 20
19.78161285951976
 30
0.0
 10
8.745760964538604
 20
19.78166638082243
 30
0.0
 10
8.745760964538604
 20
19.78167301377638
 30
0.0
 10
8.745760964538604
 20
19.78167632886304
 30
0.0
  0
LINE
  5
5CB
330
1F
100
AcDbEntity
  8
0
  6
Continuous
 62
     7
370
    15
100
AcDbLine
 10
6.71843756481753
 20
17.56405974959614
 30
0.0
 11
6.719437551947531
 21
17.56405974959614
 31
0.0
  0
LINE
  5
5CC
330
1F
100
AcDbEntity
  8
0
  6
Continuous
 62
     7
370
    15
100
AcDbLine
 10
6.719437551947531
 20
17.56405974959614
 30
0.0
 11
6.719437551947531
 21
17.56205974833613
 31
0.0
  0
LINE
  5
5CD
330
1F
100
AcDbEntity
  8
0
  6
Continuous
 62
     7
370
    15
100
AcDbLine
 10
6.719437551947531
 20
17.56205974833613
 30
0.0
 11
6.71843756481753
 21
17.56205974833613
 31
0.0
  0
LINE
  5
5CE
330
1F
100
AcDbEntity
  8
0
  6
Continuous
 62
     7
370
    15
100
AcDbLine
 10
6.71843756481753
 20
17.56205974833613
 30
0.0
 11
6.71843756481753
 21
17.56405974959614
 31
0.0
  0
LINE
  5
5CF
330
1F
100
AcDbEntity
  8
0
  6
Continuous
 62
     7
370
    15
100
AcDbLine
 10
7.359437537637531
 20
17.56205974833613
 30
0.0
 11
7.358437550517531
 21
17.56205974833613
 31
0.0
  0
LINE
  5
5D0
330
1F
100
AcDbEntity
  8
0
  6
Continuous
 62
     7
370
    15
100
AcDbLine
 10
7.358437550517531
 20
17.56405974959614
 30
0.0
 11
7.359437537637531
 21
17.56405974959614
 31
0.0
  0
LINE
  5
5D1
330
1F
100
AcDbEntity
  8
0
  6
Continuous
 62
     7
370
    15
100
AcDbLine
 10
7.359437537637531
 20
17.56405974959614
 30
0.0
 11
7.359437537637531
 21
17.56205974833613
 31
0.0
  0
LINE
  5
5D2
330
1F
100
AcDbEntity
  8
0
  6
Continuous
 62
     7
370
    15
100
AcDbLine
 10
7.358437550517531
 20
17.56205974833613
 30
0.0
 11
7.358437550517531
 21
17.56405974959614
 31
0.0
  0
LINE
  5
5D3
330
1F
100
AcDbEntity
  8
0
  6
Continuous
 62
     7
370
    15
100
AcDbLine
 10
6.719437551947531
 20
17.54905974876614
 30
0.0
 11
6.71843756481753
 21
17.54905974876614
 31
0.0
  0
LINE
  5
5D4
330
1F
100
AcDbEntity
  8
0
  6
Continuous
 62
     7
370
    15
100
AcDbLine
 10
6.71843756481753
 20
17.54905974876614
 30
0.0
 11
6.71843756481753
 21
17.55405974888614
 31
0.0
  0
LINE
  5
5D5
330
1F
100
AcDbEntity
  8
0
  6
Continuous
 62
     7
370
    15
100
AcDbLine
 10
6.71843756481753
 20
17.55505974904614
 30
0.0
 11
6.71843756481753
 21
17.56205974833613
 31
0.0
  0
LINE
  5
5D6
330
1F
100
AcDbEntity
  8
0
  6
Continuous
 62
     7
370
    15
100
AcDbLine
 10
6.719437551947531
 20
17.54905974876614
 30
0.0
 11
6.719437551947531
 21
17.55405974888614
 31
0.0
  0
LINE
  5
5D7
330
1F
100
AcDbEntity
  8
0
  6
Continuous
 62
     7
370
    15
100
AcDbLine
 10
6.719437551947531
 20
17.55505974904614
 30
0.0
 11
6.719437551947531
 21
17.56205974833613
 31
0.0
  0
LINE
  5
5D8
330
1F
100
AcDbEntity
  8
0
  6
Continuous
 62
     7
370
    15
100
AcDbLine
 10
7.358437550517531
 20
17.54905974876614
 30
0.0
 11
7.359437537637531
 21
17.54905974876614
 31
0.0
  0
LINE
  5
5D9
330
1F
100
AcDbEntity
  8
0
  6
Continuous
 62
     7
370
    15
100
AcDbLine
 10
7.359437537637531
 20
17.54905974876614
 30
0.0
 11
7.359437537637531
 21
17.55405974888614
 31
0.0
  0
LINE
  5
5DA
330
1F
100
AcDbEntity
  8
0
  6
Continuous
 62
     7
370
    15
100
AcDbLine
 10
7.359437537637531
 20
17.55505974904614
 30
0.0
 11
7.359437537637531
 21
17.56205974833613
 31
0.0
  0
LINE
  5
5DB
330
1F
100
AcDbEntity
  8
0
  6
Continuous
 62
     7
370
    15
100
AcDbLine
 10
7.358437550517531
 20
17.54905974876614
 30
0.0
 11
7.358437550517531
 21
17.55405974888614
 31
0.0
  0
LINE
  5
5DC
330
1F
100
AcDbEntity
  8
0
  6
Continuous
 62
     7
370
    15
100
AcDbLine
 10
7.358437550517531
 20
17.55505974904614
 30
0.0
 11
7.358437550517531
 21
17.56205974833613
 31
0.0
  0
LINE
  5
5DD
330
1F
100
AcDbEntity
  8
0
  6
Continuous
 62
     7
370
    15
100
AcDbLine
 10
6.720437539077532
 20
17.54805974871614
 30
0.0
 11
6.720437539077532
 21
17.54705974866614
 31
0.0
  0
ARC
  5
5DE
330
1F
100
AcDbEntity
  8
0
  6
Continuous
 62
     7
370
    15
100
AcDbCircle
 10
6.720437551197533
 20
17.54905974866614
 30
0.0
 40
0.0010000000000019
100
AcDbArc
 50
180.0
 51
270.0
  0
ARC
  5
5DF
330
1F
100
AcDbEntity
  8
0
  6
Continuous
 62
     7
370
    15
100
AcDbCircle
 10
6.720437551197533
 20
17.54905974866614
 30
0.0
 40
0.002000000000001
100
AcDbArc
 50
179.9999999997014
 51
270.0
  0
LINE
  5
5E0
330
1F
100
AcDbEntity
  8
0
  6
Continuous
 62
     7
370
    15
100
AcDbLine
 10
7.35743756338753
 20
17.54805974871614
 30
0.0
 11
7.35743756338753
 21
17.54705974866614
 31
0.0
  0
LINE
  5
5E1
330
1F
100
AcDbEntity
  8
0
  6
Continuous
 62
     7
370
    15
100
AcDbLine
 10
7.35743756338753
 20
17.54805974871614
 30
0.0
 11
6.720437539077532
 21
17.54805974871614
 31
0.0
  0
ARC
  5
5E2
330
1F
100
AcDbEntity
  8
0
  6
Continuous
 62
     7
370
    15
100
AcDbCircle
 10
7.357437551197533
 20
17.54905974866614
 30
0.0
 40
0.002000000000001
100
AcDbArc
 50
270.0
 51
0.0
  0
ARC
  5
5E3
330
1F
100
AcDbEntity
  8
0
  6
Continuous
 62
     7
370
    15
100
AcDbCircle
 10
7.357437551197533
 20
17.54905974866614
 30
0.0
 40
0.0010000000000019
100
AcDbArc
 50
270.0
 51
0.0
  0
LINE
  5
5E4
330
1F
100
AcDbEntity
  8
0
  6
Continuous
 62
     7
370
    15
100
AcDbLine
 10
6.720437539077532
 20
17.54955974861614
 30
0.0
 11
6.720437539077532
 21
17.54805974871614
 31
0.0
  0
LINE
  5
5E5
330
1F
100
AcDbEntity
  8
0
  6
Continuous
 62
     7
370
    15
100
AcDbLine
 10
7.35743756338753
 20
17.54955974861614
 30
0.0
 11
6.720437539077532
 21
17.54955974861614
 31
0.0
  0
LINE
  5
5E6
330
1F
100
AcDbEntity
  8
0
  6
Continuous
 62
     7
370
    15
100
AcDbLine
 10
7.35743756338753
 20
17.54805974871614
 30
0.0
 11
7.35743756338753
 21
17.54955974861614
 31
0.0
  0
LINE
  5
5E7
330
1F
100
AcDbEntity
  8
0
  6
Continuous
 62
     7
370
    15
100
AcDbLine
 10
6.720437539077532
 20
17.55205974855614
 30
0.0
 11
7.35743756338753
 21
17.55205974855614
 31
0.0
  0
LINE
  5
5E8
330
1F
100
AcDbEntity
  8
0
  6
Continuous
 62
     7
370
    15
100
AcDbLine
 10
7.35743756338753
 20
17.55205974855614
 30
0.0
 11
7.35743756338753
 21
17.54955974861614
 31
0.0
  0
LINE
  5
5E9
330
1F
100
AcDbEntity
  8
0
  6
Continuous
 62
     7
370
    15
100
AcDbLine
 10
6.720437539077532
 20
17.54955974861614
 30
0.0
 11
6.720437539077532
 21
17.55205974855614
 31
0.0
  0
LINE
  5
5EA
330
1F
100
AcDbEntity
  8
0
  6
Continuous
 62
     7
370
    15
100
AcDbLine
 10
7.371437561957534
 20
17.56405974959614
 30
0.0
 11
7.371437561957534
 21
17.56505974789614
 31
0.0
  0
LINE
  5
5EB
330
1F
100
AcDbEntity
  8
0
  6
Continuous
 62
     7
370
    15
100
AcDbLine
 10
7.384437543597532
 20
17.56405974959614
 30
0.0
 11
7.384437543597532
 21
17.56505974789614
 31
0.0
  0
LINE
  5
5EC
330
1F
100
AcDbEntity
  8
0
  6
Continuous
 62
     7
370
    15
100
AcDbLine
 10
7.371437561957534
 20
17.56405974959614
 30
0.0
 11
7.384437543597532
 21
17.56405974959614
 31
0.0
  0
LINE
  5
5ED
330
1F
100
AcDbEntity
  8
0
  6
Continuous
 62
     7
370
    15
100
AcDbLine
 10
7.371437561957534
 20
17.56505974789614
 30
0.0
 11
7.384437543597532
 21
17.56505974789614
 31
0.0
  0
LINE
  5
5EE
330
1F
100
AcDbEntity
  8
0
  6
Continuous
 62
     7
370
    15
100
AcDbLine
 10
7.36943755790753
 20
17.55605974827614
 30
0.0
 11
7.370437545037531
 21
17.55605974827614
 31
0.0
  0
LINE
  5
5EF
330
1F
100
AcDbEntity
  8
0
  6
Continuous
 62
     7
370
    15
100
AcDbLine
 10
7.36943755790753
 20
17.55605974827614
 30
0.0
 11
7.36943755790753
 21
17.56305974942614
 31
0.0
  0
LINE
  5
5F0
330
1F
100
AcDbEntity
  8
0
  6
Continuous
 62
     7
370
    15
100
AcDbLine
 10
7.370437545037531
 20
17.56305974942614
 30
0.0
 11
7.36943755790753
 21
17.56305974942614
 31
0.0
  0
LINE
  5
5F1
330
1F
100
AcDbEntity
  8
0
  6
Continuous
 62
     7
370
    15
100
AcDbLine
 10
7.370437545037531
 20
17.55605974827614
 30
0.0
 11
7.370437545037531
 21
17.56305974942614
 31
0.0
  0
ARC
  5
5F2
330
1F
100
AcDbEntity
  8
0
  6
Continuous
 62
     7
370
    15
100
AcDbCircle
 10
7.371437551197533
 20
17.56305974866614
 30
0.0
 40
0.002000000000001
100
AcDbArc
 50
90.0
 51
180.0
  0
ARC
  5
5F3
330
1F
100
AcDbEntity
  8
0
  6
Continuous
 62
     7
370
    15
100
AcDbCircle
 10
7.371437551197533
 20
17.56305974866614
 30
0.0
 40
0.0010000000000019
100
AcDbArc
 50
90.0
 51
179.9999999992998
  0
LINE
  5
5F4
330
1F
100
AcDbEntity
  8
0
  6
Continuous
 62
     7
370
    15
100
AcDbLine
 10
7.394437563867531
 20
17.56505974789614
 30
0.0
 11
7.394437563867531
 21
17.56405974959614
 31
0.0
  0
LINE
  5
5F5
330
1F
100
AcDbEntity
  8
0
  6
Continuous
 62
     7
370
    15
100
AcDbLine
 10
7.394437563867531
 20
17.56405974959614
 30
0.0
 11
7.384437543597532
 21
17.56405974959614
 31
0.0
  0
LINE
  5
5F6
330
1F
100
AcDbEntity
  8
0
  6
Continuous
 62
     7
370
    15
100
AcDbLine
 10
7.384437543597532
 20
17.56505974789614
 30
0.0
 11
7.394437563867531
 21
17.56505974789614
 31
0.0
  0
LINE
  5
5F7
330
1F
100
AcDbEntity
  8
0
  6
Continuous
 62
     7
370
    15
100
AcDbLine
 10
7.368437540977532
 20
17.55505974904614
 30
0.0
 11
6.709437561487532
 21
17.55505974904614
 31
0.0
  0
LINE
  5
5F8
330
1F
100
AcDbEntity
  8
0
  6
Continuous
 62
     7
370
    15
100
AcDbLine
 10
7.368437540977532
 20
17.55505974904614
 30
0.0
 11
7.368437540977532
 21
17.55405974888614
 31
0.0
  0
LINE
  5
5F9
330
1F
100
AcDbEntity
  8
0
  6
Continuous
 62
     7
370
    15
100
AcDbLine
 10
6.709437561487532
 20
17.55505974904614
 30
0.0
 11
6.709437561487532
 21
17.55405974888614
 31
0.0
  0
LINE
  5
5FA
330
1F
100
AcDbEntity
  8
0
  6
Continuous
 62
     7
370
    15
100
AcDbLine
 10
7.368437540977532
 20
17.55405974888614
 30
0.0
 11
6.709437561487532
 21
17.55405974888614
 31
0.0
  0
ARC
  5
5FB
330
1F
100
AcDbEntity
  8
0
  6
Continuous
 62
     7
370
    15
100
AcDbCircle
 10
7.368437551197531
 20
17.55605974866614
 30
0.0
 40
0.002000000000001
100
AcDbArc
 50
270.0
 51
0.0
  0
ARC
  5
5FC
330
1F
100
AcDbEntity
  8
0
  6
Continuous
 62
     7
370
    15
100
AcDbCircle
 10
7.368437551197531
 20
17.55605974866614
 30
0.0
 40
0.0010000000000019
100
AcDbArc
 50
270.0
 51
0.0
  0
ARC
  5
5FD
330
1F
100
AcDbEntity
  8
0
  6
Continuous
 62
     7
370
    15
100
AcDbCircle
 10
6.706437551197532
 20
17.56305974866614
 30
0.0
 40
0.002000000000001
100
AcDbArc
 50
0.0
 51
90.0
  0
LINE
  5
5FE
330
1F
100
AcDbEntity
  8
0
  6
Continuous
 62
     7
370
    15
100
AcDbLine
 10
6.707437557427533
 20
17.56305974942614
 30
0.0
 11
6.70843754455753
 21
17.56305974942614
 31
0.0
  0
ARC
  5
5FF
330
1F
100
AcDbEntity
  8
0
  6
Continuous
 62
     7
370
    15
100
AcDbCircle
 10
6.706437551197532
 20
17.56305974866614
 30
0.0
 40
0.0010000000000019
100
AcDbArc
 50
0.0
 51
90.0
  0
LINE
  5
600
330
1F
100
AcDbEntity
  8
0
  6
Continuous
 62
     7
370
    15
100
AcDbLine
 10
6.706437540507532
 20
17.56405974959614
 30
0.0
 11
6.706437540507532
 21
17.56505974789614
 31
0.0
  0
LINE
  5
601
330
1F
100
AcDbEntity
  8
0
  6
Continuous
 62
     7
370
    15
100
AcDbLine
 10
6.70843754455753
 20
17.55605974827614
 30
0.0
 11
6.70843754455753
 21
17.56305974942614
 31
0.0
  0
LINE
  5
602
330
1F
100
AcDbEntity
  8
0
  6
Continuous
 62
     7
370
    15
100
AcDbLine
 10
6.70843754455753
 20
17.55605974827614
 30
0.0
 11
6.707437557427533
 21
17.55605974827614
 31
0.0
  0
LINE
  5
603
330
1F
100
AcDbEntity
  8
0
  6
Continuous
 62
     7
370
    15
100
AcDbLine
 10
6.707437557427533
 20
17.55605974827614
 30
0.0
 11
6.707437557427533
 21
17.56305974942614
 31
0.0
  0
LINE
  5
604
330
1F
100
AcDbEntity
  8
0
  6
Continuous
 62
     7
370
    15
100
AcDbLine
 10
6.706437540507532
 20
17.56405974959614
 30
0.0
 11
6.693437558857532
 21
17.56405974959614
 31
0.0
  0
LINE
  5
605
330
1F
100
AcDbEntity
  8
0
  6
Continuous
 62
     7
370
    15
100
AcDbLine
 10
6.693437558857532
 20
17.56505974789614
 30
0.0
 11
6.693437558857532
 21
17.56405974959614
 31
0.0
  0
LINE
  5
606
330
1F
100
AcDbEntity
  8
0
  6
Continuous
 62
     7
370
    15
100
AcDbLine
 10
6.706437540507532
 20
17.56505974789614
 30
0.0
 11
6.693437558857532
 21
17.56505974789614
 31
0.0
  0
ARC
  5
607
330
1F
100
AcDbEntity
  8
0
  6
Continuous
 62
     7
370
    15
100
AcDbCircle
 10
6.709437551197532
 20
17.55605974866614
 30
0.0
 40
0.0019999999999982
100
AcDbArc
 50
179.9999999997014
 51
270.0
  0
ARC
  5
608
330
1F
100
AcDbEntity
  8
0
  6
Continuous
 62
     7
370
    15
100
AcDbCircle
 10
6.709437551197532
 20
17.55605974866614
 30
0.0
 40
0.0009999999999991
100
AcDbArc
 50
180.0
 51
270.0
  0
LINE
  5
609
330
1F
100
AcDbEntity
  8
0
  6
Continuous
 62
     7
370
    15
100
AcDbLine
 10
6.683437538597531
 20
17.56405974959614
 30
0.0
 11
6.683437538597531
 21
17.56505974789614
 31
0.0
  0
LINE
  5
60A
330
1F
100
AcDbEntity
  8
0
  6
Continuous
 62
     7
370
    15
100
AcDbLine
 10
6.683437538597531
 20
17.56505974789614
 30
0.0
 11
6.693437558857532
 21
17.56505974789614
 31
0.0
  0
LINE
  5
60B
330
1F
100
AcDbEntity
  8
0
  6
Continuous
 62
     7
370
    15
100
AcDbLine
 10
6.693437558857532
 20
17.56405974959614
 30
0.0
 11
6.683437538597531
 21
17.56405974959614
 31
0.0
  0
SPLINE
  5
60C
330
1F
100
AcDbEntity
  8
0
  6
Continuous
 62
     7
370
    15
100
AcDbSpline
210
0.0
220
0.0
230
1.0
 70
    24
 71
     3
 72
     9
 73
     5
 74
     0
 42
0.000000001
 43
0.0000000001
 40
0.0
 40
0.0
 40
0.0
 40
0.0
 40
195.8831009222482
 40
394.6121626329409
 40
394.6121626329409
 40
394.6121626329409
 40
394.6121626329409
 10
7.038937551231881
 20
17.54605974866804
 30
0.0
 10
6.947737125052591
 20
17.54605974866804
 30
0.0
 10
6.76401123324154
 20
17.54605974866804
 30
0.0
 10
6.712921337781042
 20
17.54605974866804
 30
0.0
 10
6.706988446832832
 20
17.54605974866804
 30
0.0
  0
LINE
  5
60D
330
1F
100
AcDbEntity
  8
0
  6
Continuous
 62
     7
370
    15
100
AcDbLine
 10
6.707986546007531
 20
17.54705974866614
 30
0.0
 11
6.706988436427532
 21
17.54605974861614
 31
0.0
  0
SPLINE
  5
60E
330
1F
100
AcDbEntity
  8
0
  6
Continuous
 62
     7
370
    15
100
AcDbSpline
210
0.0
220
0.0
230
1.0
 70
    24
 71
     3
 72
    61
 73
    57
 74
     0
 42
0.000000001
 43
0.0000000001
 40
0.0
 40
0.0
 40
0.0
 40
0.0
 40
0.0048868662029504
 40
0.0097593086496003
 40
0.0146173993187807
 40
0.0194612108291234
 40
0.0242908164433709
 40
0.0291062900726526
 40
0.0339077062807236
 40
0.0386951402881685
 40
0.0434686679765604
 40
0.0482283658925774
 40
0.0529743112520731
 40
0.0577065819440975
 40
0.0624252565348649
 40
0.0780401219932078
 40
0.0934995438317556
 40
0.1090838837367396
 40
0.1245077466613055
 40
0.1554731592104436
 40
0.1864258533576324
 40
0.2174013194547212
 40
0.248442973691779
 40
0.2796042989058957
 40
0.3109516444144053
 40
0.3424036246956941
 40
0.3736846670662345
 40
0.4048566815792622
 40
0.4360064759048178
 40
0.4672360496302357
 40
0.4986649581924453
 40
0.5065637141376185
 40
0.5144455871588523
 40
0.5301538076567299
 40
0.5614063329303002
 40
0.592547447198789
 40
0.6236857038934254
 40
0.6549185957493257
 40
0.68633697328477
 40
0.717787420119707
 40
0.7490822659107518
 40
0.7803050278976497
 40
0.8115333633093245
 40
0.8428421396028197
 40
0.8743022859083151
 40
0.8900331496973937
 40
0.9057556664434704
 40
0.9214571419331599
 40
0.9371389172856458
 40
0.9528484027497972
 40
0.9685274985504518
 40
0.9748350895867368
 40
0.9811354988877225
 40
0.9874293618418835
 40
0.9937173158221915
 40
1.0
 40
1.0
 40
1.0
 40
1.0
 10
6.707986546973173
 20
17.54705974866805
 30
0.0
 10
6.708041838884402
 20
17.54705974866805
 30
0.0
 10
6.708152259510852
 20
17.54705974866805
 30
0.0
 10
6.708330414558409
 20
17.54705974866805
 30
0.0
 10
6.7085174414318
 20
17.54705974866805
 30
0.0
 10
6.708714248915893
 20
17.54705974866805
 30
0.0
 10
6.708920594581338
 20
17.54705974866805
 30
0.0
 10
6.709136543105461
 20
17.54705974866805
 30
0.0
 10
6.709362077237632
 20
17.54705974866805
 30
0.0
 10
6.709597201587942
 20
17.54705974866805
 30
0.0
 10
6.709841914917753
 20
17.54705974866805
 30
0.0
 10
6.71009621761171
 20
17.54705974866805
 30
0.0
 10
6.710360109387763
 20
17.54705974866805
 30
0.0
 10
6.710633591010151
 20
17.54705974866805
 30
0.0
 10
6.711134812789301
 20
17.54705974866805
 30
0.0
 10
6.711907482499174
 20
17.54705974866805
 30
0.0
 10
6.713031426592089
 20
17.54705974866805
 30
0.0
 10
6.714270219234522
 20
17.54705974866805
 30
0.0
 10
6.716086207135542
 20
17.54705974866805
 30
0.0
 10
6.718667392527984
 20
17.54705974866805
 30
0.0
 10
6.722302431719952
 20
17.54705974866805
 30
0.0
 10
6.726508079704601
 20
17.54705974866805
 30
0.0
 10
6.73132673519331
 20
17.54705974866805
 30
0.0
 10
6.736807633378309
 20
17.54705974866805
 30
0.0
 10
6.742997500044201
 20
17.54705974866805
 30
0.0
 10
6.749919684873689
 20
17.54705974866805
 30
0.0
 10
6.757584244771202
 20
17.54705974866805
 30
0.0
 10
6.766001727153473
 20
17.54705974866805
 30
0.0
 10
6.775211551104262
 20
17.54705974866805
 30
0.0
 10
6.785258341572903
 20
17.54705974866805
 30
0.0
 10
6.793430025874111
 20
17.54705974866805
 30
0.0
 10
6.799149739982012
 20
17.54705974866805
 30
0.0
 10
6.803032061200922
 20
17.54705974866805
 30
0.0
 10
6.80996429451179
 20
17.54705974866805
 30
0.0
 10
6.820298436340663
 20
17.54705974866805
 30
0.0
 10
6.833333415973389
 20
17.54705974866805
 30
0.0
 10
6.84695759034446
 20
17.54705974866805
 30
0.0
 10
6.861153844600162
 20
17.54705974866805
 30
0.0
 10
6.875874784587113
 20
17.54705974866805
 30
0.0
 10
6.891030223931232
 20
17.54705974866805
 30
0.0
 10
6.906526960004424
 20
17.54705974866805
 30
0.0
 10
6.922311338282431
 20
17.54705974866805
 30
0.0
 10
6.938378802522492
 20
17.54705974866805
 30
0.0
 10
6.95472721568626
 20
17.54705974866805
 30
0.0
 10
6.96854903589767
 20
17.54705974866805
 30
0.0
 10
6.979706543576511
 20
17.54705974866805
 30
0.0
 10
6.9881052980467
 20
17.54705974866805
 30
0.0
 10
6.996526026245551
 20
17.54705974866805
 30
0.0
 10
7.00497027390621
 20
17.54705974866805
 30
0.0
 10
7.013431287596852
 20
17.54705974866805
 30
0.0
 10
7.020220008664261
 20
17.54705974866805
 30
0.0
 10
7.02531853014116
 20
17.54705974866805
 30
0.0
 10
7.02872683690217
 20
17.54705974866805
 30
0.0
 10
7.032132633851129
 20
17.54705974866805
 30
0.0
 10
7.03553592746178
 20
17.54705974866805
 30
0.0
 10
7.037803993577772
 20
17.54705974866805
 30
0.0
 10
7.038937551231881
 20
17.54705974866805
 30
0.0
  0
LINE
  5
60F
330
1F
100
AcDbEntity
  8
0
  6
Continuous
 62
     7
370
    15
100
AcDbLine
 10
7.038937551227532
 20
17.54605974861614
 30
0.0
 11
7.038937551227532
 21
17.54705974866614
 31
0.0
  0
SPLINE
  5
610
330
1F
100
AcDbEntity
  8
0
  6
Continuous
 62
     7
370
    15
100
AcDbSpline
210
0.0
220
0.0
230
1.0
 70
    24
 71
     3
 72
     9
 73
     5
 74
     0
 42
0.000000001
 43
0.0000000001
 40
31.52807004603019
 40
31.52807004603019
 40
31.52807004603019
 40
31.52807004603019
 40
227.4111709682784
 40
426.1402326789712
 40
426.1402326789712
 40
426.1402326789712
 40
426.1402326789712
 10
7.038937551231881
 20
17.54305974866805
 30
0.0
 10
7.130137977411174
 20
17.54305974866805
 30
0.0
 10
7.313863869222221
 20
17.54305974866805
 30
0.0
 10
7.364953764682723
 20
17.54305974866805
 30
0.0
 10
7.37088665563093
 20
17.54305974866805
 30
0.0
  0
LINE
  5
611
330
1F
100
AcDbEntity
  8
0
  6
Continuous
 62
     7
370
    15
100
AcDbLine
 10
7.038937551227532
 20
17.54305974847614
 30
0.0
 11
7.038937551227532
 21
17.54605974861614
 31
0.0
  0
SPLINE
  5
612
330
1F
100
AcDbEntity
  8
0
  6
Continuous
 62
     7
370
    15
100
AcDbSpline
210
0.0
220
0.0
230
1.0
 70
    24
 71
     3
 72
     9
 73
     5
 74
     0
 42
0.000000001
 43
0.0000000001
 40
31.52807004603019
 40
31.52807004603019
 40
31.52807004603019
 40
31.52807004603019
 40
230.257131756723
 40
426.1402326789712
 40
426.1402326789712
 40
426.1402326789712
 40
426.1402326789712
 10
7.37088665563093
 20
17.54605974866804
 30
0.0
 10
7.364953764682723
 20
17.54605974866804
 30
0.0
 10
7.313863869222221
 20
17.54605974866804
 30
0.0
 10
7.130137977411174
 20
17.54605974866804
 30
0.0
 10
7.038937551231881
 20
17.54605974866804
 30
0.0
  0
LINE
  5
613
330
1F
100
AcDbEntity
  8
0
  6
Continuous
 62
     7
370
    15
100
AcDbLine
 10
7.370886666027531
 20
17.54305974847614
 30
0.0
 11
7.370886666027531
 21
17.54605974861614
 31
0.0
  0
LINE
  5
614
330
1F
100
AcDbEntity
  8
0
  6
Continuous
 62
     7
370
    15
100
AcDbLine
 10
7.370886666027531
 20
17.54305974847614
 30
0.0
 11
7.369888556447535
 21
17.54205974877614
 31
0.0
  0
SPLINE
  5
615
330
1F
100
AcDbEntity
  8
0
  6
Continuous
 62
     7
370
    15
100
AcDbSpline
210
0.0
220
0.0
230
1.0
 70
    24
 71
     3
 72
    61
 73
    57
 74
     0
 42
0.000000001
 43
0.0000000001
 40
0.0
 40
0.0
 40
0.0
 40
0.0
 40
0.0048868661980496
 40
0.0097593086406154
 40
0.0146173993065287
 40
0.0194612108144213
 40
0.024290816427036
 40
0.0291062900555011
 40
0.0339077062635725
 40
0.0386951402718343
 40
0.0434686679618594
 40
0.0482283658803256
 40
0.0529743112430864
 40
0.0577065819391913
 40
0.0624252565348544
 40
0.078040121974881
 40
0.0934995438317503
 40
0.1090838837392763
 40
0.1245077466613047
 40
0.1554731592104445
 40
0.1864258533576363
 40
0.2174013194547275
 40
0.2484429736917875
 40
0.2796042989059061
 40
0.3109516444144184
 40
0.3424036246957092
 40
0.3736846670662528
 40
0.4048566815792832
 40
0.4360064759048406
 40
0.4672360496302613
 40
0.4986649581924734
 40
0.5065637141376467
 40
0.5144455871588819
 40
0.5301538076567607
 40
0.5614063329303331
 40
0.5925474471988239
 40
0.6236857038934629
 40
0.6549185957493659
 40
0.6863369732848126
 40
0.7177874201197522
 40
0.7490822659107989
 40
0.7803050278976995
 40
0.8115333633093763
 40
0.842842139602874
 40
0.8743022859083721
 40
0.8900331497683362
 40
0.9057556664434519
 40
0.9214571419944164
 40
0.9371389172857021
 40
0.9528484028691778
 40
0.9685274985504721
 40
0.9748350896050583
 40
0.9811354989151983
 40
0.9874293618693601
 40
0.99371731584051
 40
1.0
 40
1.0
 40
1.0
 40
1.0
 10
7.369888555490592
 20
17.54205974866805
 30
0.0
 10
7.369833263579413
 20
17.54205974866805
 30
0.0
 10
7.369722842953074
 20
17.54205974866805
 30
0.0
 10
7.36954468790564
 20
17.54205974866805
 30
0.0
 10
7.369357661032361
 20
17.54205974866805
 30
0.0
 10
7.369160853548353
 20
17.54205974866805
 30
0.0
 10
7.368954507882951
 20
17.54205974866805
 30
0.0
 10
7.368738559358853
 20
17.54205974866805
 30
0.0
 10
7.368513025226691
 20
17.54205974866805
 30
0.0
 10
7.368277900876353
 20
17.54205974866805
 30
0.0
 10
7.368033187546481
 20
17.54205974866805
 30
0.0
 10
7.36777888485244
 20
17.54205974866805
 30
0.0
 10
7.367514993076283
 20
17.54205974866805
 30
0.0
 10
7.36724151145374
 20
17.54205974866805
 30
0.0
 10
7.366740289675052
 20
17.54205974866805
 30
0.0
 10
7.365967619965162
 20
17.54205974866805
 30
0.0
 10
7.364843675872042
 20
17.54205974866805
 30
0.0
 10
7.363604883229261
 20
17.54205974866805
 30
0.0
 10
7.361788895328079
 20
17.54205974866805
 30
0.0
 10
7.35920770993579
 20
17.54205974866805
 30
0.0
 10
7.355572670743801
 20
17.54205974866805
 30
0.0
 10
7.351367022759162
 20
17.54205974866805
 30
0.0
 10
7.346548367270441
 20
17.54205974866805
 30
0.0
 10
7.341067469085442
 20
17.54205974866805
 30
0.0
 10
7.33487760241956
 20
17.54205974866805
 30
0.0
 10
7.32795541759006
 20
17.54205974866805
 30
0.0
 10
7.320290857692563
 20
17.54205974866805
 30
0.0
 10
7.311873375310292
 20
17.54205974866805
 30
0.0
 10
7.302663551359503
 20
17.54205974866805
 30
0.0
 10
7.292616760890861
 20
17.54205974866805
 30
0.0
 10
7.284445076589652
 20
17.54205974866805
 30
0.0
 10
7.278725362481751
 20
17.54205974866805
 30
0.0
 10
7.274843041262841
 20
17.54205974866805
 30
0.0
 10
7.267910807951975
 20
17.54205974866805
 30
0.0
 10
7.257576666123102
 20
17.54205974866805
 30
0.0
 10
7.244541686490372
 20
17.54205974866805
 30
0.0
 10
7.230917512119289
 20
17.54205974866805
 30
0.0
 10
7.216721257863601
 20
17.54205974866805
 30
0.0
 10
7.202000317876643
 20
17.54205974866805
 30
0.0
 10
7.18684487853253
 20
17.54205974866805
 30
0.0
 10
7.171348142459341
 20
17.54205974866805
 30
0.0
 10
7.155563764181322
 20
17.54205974866805
 30
0.0
 10
7.1394962999413
 20
17.54205974866805
 30
0.0
 10
7.123147886777414
 20
17.54205974866805
 30
0.0
 10
7.1093260665539
 20
17.54205974866805
 30
0.0
 10
7.098168558874161
 20
17.54205974866805
 30
0.0
 10
7.089769804393491
 20
17.54205974866805
 30
0.0
 10
7.08134907620754
 20
17.54205974866805
 30
0.0
 10
7.072904828525113
 20
17.54205974866805
 30
0.0
 10
7.064443814845332
 20
17.54205974866805
 30
0.0
 10
7.057655093774722
 20
17.54205974866805
 30
0.0
 10
7.052556572314323
 20
17.54205974866805
 30
0.0
 10
7.049148265548361
 20
17.54205974866805
 30
0.0
 10
7.045742468599409
 20
17.54205974866805
 30
0.0
 10
7.042339174993721
 20
17.54205974866805
 30
0.0
 10
7.040071108882682
 20
17.54205974866805
 30
0.0
 10
7.038937551231881
 20
17.54205974866805
 30
0.0
  0
LINE
  5
616
330
1F
100
AcDbEntity
  8
0
  6
Continuous
 62
     7
370
    15
100
AcDbLine
 10
7.038937551227532
 20
17.54305974847614
 30
0.0
 11
7.038937551227532
 21
17.54205974877614
 31
0.0
  0
SPLINE
  5
617
330
1F
100
AcDbEntity
  8
0
  6
Continuous
 62
     7
370
    15
100
AcDbSpline
210
0.0
220
0.0
230
1.0
 70
    24
 71
     3
 72
     9
 73
     5
 74
     0
 42
0.000000001
 43
0.0000000001
 40
0.0
 40
0.0
 40
0.0
 40
0.0
 40
198.7290617106926
 40
394.6121626329409
 40
394.6121626329409
 40
394.6121626329409
 40
394.6121626329409
 10
6.706988446832832
 20
17.54305974866805
 30
0.0
 10
6.712921337781042
 20
17.54305974866805
 30
0.0
 10
6.76401123324154
 20
17.54305974866805
 30
0.0
 10
6.947737125052591
 20
17.54305974866805
 30
0.0
 10
7.038937551231881
 20
17.54305974866805
 30
0.0
  0
SPLINE
  5
618
330
1F
100
AcDbEntity
  8
0
  6
Continuous
 62
     7
370
    15
100
AcDbSpline
210
0.0
220
0.0
230
1.0
 70
    24
 71
     3
 72
    56
 73
    52
 74
     0
 42
0.000000001
 43
0.0000000001
 40
0.0
 40
0.0
 40
0.0
 40
0.0
 40
0.0034856436752864
 40
0.0069728672026867
 40
0.0104617799921554
 40
0.0139524912948064
 40
0.0174451101929787
 40
0.0209397455903782
 40
0.0244365062023047
 40
0.0279355005459637
 40
0.0314368369308702
 40
0.047046825805384
 40
0.0626890467728488
 40
0.0782523593724065
 40
0.0938372980943871
 40
0.1093916675239738
 40
0.1249564805666258
 40
0.1561171845692444
 40
0.1873953305292184
 40
0.2188585689358363
 40
0.2502359374629046
 40
0.2814306366514094
 40
0.3125213266056955
 40
0.3435890801462005
 40
0.3747208792632502
 40
0.4060136828790182
 40
0.4375321681414725
 40
0.4688673217586624
 40
0.4813357730355226
 40
0.4999889978679612
 40
0.530817752842264
 40
0.5620523270498349
 40
0.593224242536375
 40
0.6246205905904234
 40
0.6560643573882215
 40
0.6873156167874438
 40
0.7184567464851525
 40
0.7495552937026944
 40
0.7806661508660496
 40
0.8118341362341434
 40
0.8430960264471249
 40
0.8744766314197271
 40
0.9058654032503056
 40
0.9214688565748263
 40
0.9372329001736725
 40
0.9528413467504428
 40
0.9686038969106462
 40
0.9763976605925217
 40
0.9842280580763919
 40
0.9920954018451419
 40
1.0
 40
1.0
 40
1.0
 40
1.0
 10
7.038937551231881
 20
17.54205974866805
 30
0.0
 10
7.038308654402952
 20
17.54205974866805
 30
0.0
 10
7.037050575700452
 20
17.54205974866805
 30
0.0
 10
7.03516306975239
 20
17.54205974866805
 30
0.0
 10
7.033274768090042
 20
17.54205974866805
 30
0.0
 10
7.031385670713272
 20
17.54205974866805
 30
0.0
 10
7.02949577767526
 20
17.54205974866805
 30
0.0
 10
7.027605088795429
 20
17.54205974866805
 30
0.0
 10
7.025713604775261
 20
17.54205974866805
 30
0.0
 10
7.02382132301865
 20
17.54205974866805
 30
0.0
 10
7.019746452991511
 20
17.54205974866805
 30
0.0
 10
7.013487623307852
 20
17.54205974866805
 30
0.0
 10
7.005072283379981
 20
17.54205974866805
 30
0.0
 10
6.996681918809982
 20
17.54205974866805
 30
0.0
 10
6.988332660391312
 20
17.54205974866805
 30
0.0
 10
6.980013190012409
 20
17.54205974866805
 30
0.0
 10
6.968965982797631
 20
17.54205974866805
 30
0.0
 10
6.955227394011321
 20
17.54205974866805
 30
0.0
 10
6.938888157155461
 20
17.54205974866805
 30
0.0
 10
6.922751157650702
 20
17.54205974866805
 30
0.0
 10
6.906910658472582
 20
17.54205974866805
 30
0.0
 10
6.891456233096739
 20
17.54205974866805
 30
0.0
 10
6.876419371801662
 20
17.54205974866805
 30
0.0
 10
6.861806894738871
 20
17.54205974866805
 30
0.0
 10
6.847631006892352
 20
17.54205974866805
 30
0.0
 10
6.833916665526881
 20
17.54205974866805
 30
0.0
 10
6.820770628130271
 20
17.54205974866805
 30
0.0
 10
6.81078586606262
 20
17.54205974866805
 30
0.0
 10
6.802850291936773
 20
17.54205974866805
 30
0.0
 10
6.795229996341741
 20
17.54205974866805
 30
0.0
 10
6.785845962433971
 20
17.54205974866805
 30
0.0
 10
6.7758097786121
 20
17.54205974866805
 30
0.0
 10
6.766525289030572
 20
17.54205974866805
 30
0.0
 10
6.75802507706969
 20
17.54205974866805
 30
0.0
 10
6.750305598420623
 20
17.54205974866805
 30
0.0
 10
6.74336284562005
 20
17.54205974866805
 30
0.0
 10
6.737162729611811
 20
17.54205974866805
 30
0.0
 10
6.73165166497128
 20
17.54205974866805
 30
0.0
 10
6.726783183655929
 20
17.54205974866805
 30
0.0
 10
6.722516832405271
 20
17.54205974866805
 30
0.0
 10
6.718817446483742
 20
17.54205974866805
 30
0.0
 10
6.715658622443522
 20
17.54205974866805
 30
0.0
 10
6.713458153702062
 20
17.54205974866805
 30
0.0
 10
6.71194068198958
 20
17.54205974866805
 30
0.0
 10
6.710923514388922
 20
17.54205974866805
 30
0.0
 10
6.710018630531483
 20
17.54205974866805
 30
0.0
 10
6.709360384263889
 20
17.54205974866805
 30
0.0
 10
6.70888741872189
 20
17.54205974866805
 30
0.0
 10
6.708560727984973
 20
17.54205974866805
 30
0.0
 10
6.708257325984981
 20
17.54205974866805
 30
0.0
 10
6.708076948664891
 20
17.54205974866805
 30
0.0
 10
6.707986546973173
 20
17.54205974866805
 30
0.0
  0
LINE
  5
619
330
1F
100
AcDbEntity
  8
0
  6
Continuous
 62
     7
370
    15
100
AcDbLine
 10
6.706988436427532
 20
17.54305974847614
 30
0.0
 11
6.707986546007531
 21
17.54205974877614
 31
0.0
  0
LINE
  5
61A
330
1F
100
AcDbEntity
  8
0
  6
Continuous
 62
     7
370
    15
100
AcDbLine
 10
6.706988436427532
 20
17.54605974861614
 30
0.0
 11
6.706988436427532
 21
17.54305974847614
 31
0.0
  0
SPLINE
  5
61B
330
1F
100
AcDbEntity
  8
0
  6
Continuous
 62
     7
370
    15
100
AcDbSpline
210
0.0
220
0.0
230
1.0
 70
    24
 71
     3
 72
    56
 73
    52
 74
     0
 42
0.000000001
 43
0.0000000001
 40
0.0
 40
0.0
 40
0.0
 40
0.0
 40
0.0034856436755195
 40
0.0069728672030945
 40
0.0104617799926795
 40
0.013952491295389
 40
0.0174451101935613
 40
0.0209397455909027
 40
0.0244365062027129
 40
0.0279355005461974
 40
0.0314368369308713
 40
0.0470468257748452
 40
0.062689046772833
 40
0.0782523593754129
 40
0.0938372980944116
 40
0.1093916675300807
 40
0.1249564805666147
 40
0.1561171845692352
 40
0.1873953305292107
 40
0.2188585689358301
 40
0.2502359374628995
 40
0.2814306366514058
 40
0.3125213266056937
 40
0.3435890801462002
 40
0.3747208792632516
 40
0.4060136828790202
 40
0.4375321681414769
 40
0.4688673217586679
 40
0.4813357730355273
 40
0.4999889978679676
 40
0.5308177528392171
 40
0.5620523270498162
 40
0.593224242536358
 40
0.6246205905904071
 40
0.6560643573882076
 40
0.6873156167874305
 40
0.718456746485141
 40
0.7495552937026845
 40
0.7806661508660402
 40
0.8118341362341363
 40
0.8430960264471194
 40
0.8744766314197235
 40
0.9058654032503032
 40
0.9214688565724864
 40
0.9372329001736671
 40
0.9528413467232455
 40
0.9686038969106419
 40
0.9763976605828256
 40
0.9842280580634652
 40
0.9920954018354468
 40
1.0
 40
1.0
 40
1.0
 40
1.0
 10
7.038937551231881
 20
17.54705974866805
 30
0.0
 10
7.039566448060861
 20
17.54705974866805
 30
0.0
 10
7.040824526763423
 20
17.54705974866805
 30
0.0
 10
7.04271203271159
 20
17.54705974866805
 30
0.0
 10
7.044600334373991
 20
17.54705974866805
 30
0.0
 10
7.04648943175079
 20
17.54705974866805
 30
0.0
 10
7.04837932478881
 20
17.54705974866805
 30
0.0
 10
7.050270013668602
 20
17.54705974866805
 30
0.0
 10
7.05216149768871
 20
17.54705974866805
 30
0.0
 10
7.05405377944523
 20
17.54705974866805
 30
0.0
 10
7.058128649466781
 20
17.54705974866805
 30
0.0
 10
7.064387479150373
 20
17.54705974866805
 30
0.0
 10
7.072802819078824
 20
17.54705974866805
 30
0.0
 10
7.081193183654481
 20
17.54705974866805
 30
0.0
 10
7.089542442074081
 20
17.54705974866805
 30
0.0
 10
7.09786191245221
 20
17.54705974866805
 30
0.0
 10
7.108909119667353
 20
17.54705974866805
 30
0.0
 10
7.122647708452402
 20
17.54705974866805
 30
0.0
 10
7.138986945308311
 20
17.54705974866805
 30
0.0
 10
7.15512394481306
 20
17.54705974866805
 30
0.0
 10
7.170964443991182
 20
17.54705974866805
 30
0.0
 10
7.186418869367025
 20
17.54705974866805
 30
0.0
 10
7.201455730662099
 20
17.54705974866805
 30
0.0
 10
7.216068207724892
 20
17.54705974866805
 30
0.0
 10
7.230244095571412
 20
17.54705974866805
 30
0.0
 10
7.243958436936881
 20
17.54705974866805
 30
0.0
 10
7.257104474333492
 20
17.54705974866805
 30
0.0
 10
7.267089236401152
 20
17.54705974866805
 30
0.0
 10
7.275024810526981
 20
17.54705974866805
 30
0.0
 10
7.282645106121701
 20
17.54705974866805
 30
0.0
 10
7.292029140029083
 20
17.54705974866805
 30
0.0
 10
7.302065323851452
 20
17.54705974866805
 30
0.0
 10
7.311349813433161
 20
17.54705974866805
 30
0.0
 10
7.319850025394074
 20
17.54705974866805
 30
0.0
 10
7.327569504043133
 20
17.54705974866805
 30
0.0
 10
7.334512256843711
 20
17.54705974866805
 30
0.0
 10
7.340712372851954
 20
17.54705974866805
 30
0.0
 10
7.346223437492482
 20
17.54705974866805
 30
0.0
 10
7.351091918807832
 20
17.54705974866805
 30
0.0
 10
7.35535827005849
 20
17.54705974866805
 30
0.0
 10
7.35905765598004
 20
17.54705974866805
 30
0.0
 10
7.362216480020182
 20
17.54705974866805
 30
0.0
 10
7.364416948761831
 20
17.54705974866805
 30
0.0
 10
7.365934420473801
 20
17.54705974866805
 30
0.0
 10
7.366951588074281
 20
17.54705974866805
 30
0.0
 10
7.36785647193182
 20
17.54705974866805
 30
0.0
 10
7.368514718199221
 20
17.54705974866805
 30
0.0
 10
7.368987683741662
 20
17.54705974866805
 30
0.0
 10
7.369314374478453
 20
17.54705974866805
 30
0.0
 10
7.369617776478539
 20
17.54705974866805
 30
0.0
 10
7.369798153798773
 20
17.54705974866805
 30
0.0
 10
7.369888555490592
 20
17.54705974866805
 30
0.0
  0
LINE
  5
61C
330
1F
100
AcDbEntity
  8
0
  6
Continuous
 62
     7
370
    15
100
AcDbLine
 10
7.370886666027531
 20
17.54605974861614
 30
0.0
 11
7.369888556447535
 21
17.54705974866614
 31
0.0
  0
LINE
  5
61D
330
1F
100
AcDbEntity
  8
0
  6
Continuous
 62
     7
370
    15
100
AcDbLine
 10
7.370886666027531
 20
17.54305974847614
 30
0.0
 11
7.414240521637531
 21
17.54305974847614
 31
0.0
  0
LINE
  5
61E
330
1F
100
AcDbEntity
  8
0
  6
Continuous
 62
     7
370
    15
100
AcDbLine
 10
7.414240521637531
 20
17.54305974847614
 30
0.0
 11
7.414030653687532
 21
17.54205974877614
 31
0.0
  0
LINE
  5
61F
330
1F
100
AcDbEntity
  8
0
  6
Continuous
 62
     7
370
    15
100
AcDbLine
 10
7.414030653687532
 20
17.54205974877614
 30
0.0
 11
7.369888556447535
 21
17.54205974877614
 31
0.0
  0
LINE
  5
620
330
1F
100
AcDbEntity
  8
0
  6
Continuous
 62
     7
370
    15
100
AcDbLine
 10
7.414240521637531
 20
17.54605974861614
 30
0.0
 11
7.370886666027531
 21
17.54605974861614
 31
0.0
  0
LINE
  5
621
330
1F
100
AcDbEntity
  8
0
  6
Continuous
 62
     7
370
    15
100
AcDbLine
 10
7.414240521637531
 20
17.54605974861614
 30
0.0
 11
7.414240521637531
 21
17.54305974847614
 31
0.0
  0
LINE
  5
622
330
1F
100
AcDbEntity
  8
0
  6
Continuous
 62
     7
370
    15
100
AcDbLine
 10
6.66363458081753
 20
17.54305974847614
 30
0.0
 11
6.706988436427532
 21
17.54305974847614
 31
0.0
  0
LINE
  5
623
330
1F
100
AcDbEntity
  8
0
  6
Continuous
 62
     7
370
    15
100
AcDbLine
 10
6.66363458081753
 20
17.54305974847614
 30
0.0
 11
6.66384444877753
 21
17.54205974877614
 31
0.0
  0
LINE
  5
624
330
1F
100
AcDbEntity
  8
0
  6
Continuous
 62
     7
370
    15
100
AcDbLine
 10
6.707986546007531
 20
17.54205974877614
 30
0.0
 11
6.66384444877753
 21
17.54205974877614
 31
0.0
  0
LINE
  5
625
330
1F
100
AcDbEntity
  8
0
  6
Continuous
 62
     7
370
    15
100
AcDbLine
 10
7.414240521637531
 20
17.54605974861614
 30
0.0
 11
7.414030653687532
 21
17.54705974866614
 31
0.0
  0
LINE
  5
626
330
1F
100
AcDbEntity
  8
0
  6
Continuous
 62
     7
370
    15
100
AcDbLine
 10
7.369888556447535
 20
17.54705974866614
 30
0.0
 11
7.414030653687532
 21
17.54705974866614
 31
0.0
  0
LINE
  5
627
330
1F
100
AcDbEntity
  8
0
  6
Continuous
 62
     7
370
    15
100
AcDbLine
 10
6.706988436427532
 20
17.54605974861614
 30
0.0
 11
6.66363458081753
 21
17.54605974861614
 31
0.0
  0
LINE
  5
628
330
1F
100
AcDbEntity
  8
0
  6
Continuous
 62
     7
370
    15
100
AcDbLine
 10
6.66384444877753
 20
17.54705974866614
 30
0.0
 11
6.66363458081753
 21
17.54605974861614
 31
0.0
  0
LINE
  5
629
330
1F
100
AcDbEntity
  8
0
  6
Continuous
 62
     7
370
    15
100
AcDbLine
 10
6.66384444877753
 20
17.54705974866614
 30
0.0
 11
6.707986546007531
 21
17.54705974866614
 31
0.0
  0
LINE
  5
62A
330
1F
100
AcDbEntity
  8
0
  6
Continuous
 62
     7
370
    15
100
AcDbLine
 10
6.66363458081753
 20
17.54305974847614
 30
0.0
 11
6.66363458081753
 21
17.54605974861614
 31
0.0
  0
LINE
  5
62B
330
1F
100
AcDbEntity
  8
0
  6
Continuous
 62
     7
370
    15
100
AcDbLine
 10
6.505604190087532
 20
17.54305974847614
 30
0.0
 11
6.66363458081753
 21
17.54305974847614
 31
0.0
  0
LINE
  5
62C
330
1F
100
AcDbEntity
  8
0
  6
Continuous
 62
     7
370
    15
100
AcDbLine
 10
6.505604190087532
 20
17.54305974847614
 30
0.0
 11
6.505604190087532
 21
17.54605974861614
 31
0.0
  0
LINE
  5
62D
330
1F
100
AcDbEntity
  8
0
  6
Continuous
 62
     7
370
    15
100
AcDbLine
 10
6.66363458081753
 20
17.54605974861614
 30
0.0
 11
6.505604190087532
 21
17.54605974861614
 31
0.0
  0
LINE
  5
62E
330
1F
100
AcDbEntity
  8
0
  6
Continuous
 62
     7
370
    15
100
AcDbLine
 10
6.506604236817529
 20
17.54705974866614
 30
0.0
 11
6.505604190087532
 21
17.54605974861614
 31
0.0
  0
LINE
  5
62F
330
1F
100
AcDbEntity
  8
0
  6
Continuous
 62
     7
370
    15
100
AcDbLine
 10
6.506604236817529
 20
17.54705974866614
 30
0.0
 11
6.66384444877753
 21
17.54705974866614
 31
0.0
  0
LINE
  5
630
330
1F
100
AcDbEntity
  8
0
  6
Continuous
 62
     7
370
    15
100
AcDbLine
 10
6.506604236817529
 20
17.54205974877614
 30
0.0
 11
6.505604190087532
 21
17.54305974847614
 31
0.0
  0
LINE
  5
631
330
1F
100
AcDbEntity
  8
0
  6
Continuous
 62
     7
370
    15
100
AcDbLine
 10
6.66384444877753
 20
17.54205974877614
 30
0.0
 11
6.506604236817529
 21
17.54205974877614
 31
0.0
  0
LINE
  5
632
330
1F
100
AcDbEntity
  8
0
  6
Continuous
 62
     7
370
    15
100
AcDbLine
 10
7.414240521637531
 20
17.54305974847614
 30
0.0
 11
7.572270912377532
 21
17.54305974847614
 31
0.0
  0
LINE
  5
633
330
1F
100
AcDbEntity
  8
0
  6
Continuous
 62
     7
370
    15
100
AcDbLine
 10
7.572270912377532
 20
17.54605974861614
 30
0.0
 11
7.414240521637531
 21
17.54605974861614
 31
0.0
  0
LINE
  5
634
330
1F
100
AcDbEntity
  8
0
  6
Continuous
 62
     7
370
    15
100
AcDbLine
 10
7.572270912377532
 20
17.54305974847614
 30
0.0
 11
7.572270912377532
 21
17.54605974861614
 31
0.0
  0
LINE
  5
635
330
1F
100
AcDbEntity
  8
0
  6
Continuous
 62
     7
370
    15
100
AcDbLine
 10
7.572270912377532
 20
17.54305974847614
 30
0.0
 11
7.571270865647529
 21
17.54205974877614
 31
0.0
  0
LINE
  5
636
330
1F
100
AcDbEntity
  8
0
  6
Continuous
 62
     7
370
    15
100
AcDbLine
 10
7.571270865647529
 20
17.54205974877614
 30
0.0
 11
7.414030653687532
 21
17.54205974877614
 31
0.0
  0
LINE
  5
637
330
1F
100
AcDbEntity
  8
0
  6
Continuous
 62
     7
370
    15
100
AcDbLine
 10
7.572270912377532
 20
17.54605974861614
 30
0.0
 11
7.571270865647529
 21
17.54705974866614
 31
0.0
  0
LINE
  5
638
330
1F
100
AcDbEntity
  8
0
  6
Continuous
 62
     7
370
    15
100
AcDbLine
 10
7.414030653687532
 20
17.54705974866614
 30
0.0
 11
7.571270865647529
 21
17.54705974866614
 31
0.0
  0
MTEXT
  5
639
330
1F
100
AcDbEntity
  8
0
  6
Continuous
 62
     7
370
     0
100
AcDbMText
 10
8.109111418997532
 20
17.79586139670614
 30
0.0
 40
0.3500000000000003
 41
0.0
 46
0.0
 71
     1
 72
     1
  1
E: 1:1000
  7
SLDTEXTSTYLE0
 73
     1
 44
1.0
  0
ENDSEC
  0
SECTION
  2
OBJECTS
  0
DICTIONARY
  5
C
330
0
100
AcDbDictionary
281
     1
  3
ACAD_CIP_PREVIOUS_PRODUCT_INFO
350
64B
  3
ACAD_COLOR
350
194
  3
ACAD_DETAILVIEWSTYLE
350
647
  3
ACAD_GROUP
350
D
  3
ACAD_LAYOUT
350
1A
  3
ACAD_MATERIAL
350
167
  3
ACAD_MLEADERSTYLE
350
197
  3
ACAD_MLINESTYLE
350
17
  3
ACAD_PLOTSETTINGS
350
19
  3
ACAD_PLOTSTYLENAME
350
E
  3
ACAD_SCALELIST
350
47
  3
ACAD_SECTIONVIEWSTYLE
350
645
  3
ACAD_TABLESTYLE
350
195
  3
ACAD_VISUALSTYLE
350
180
  3
ACDB_RECOMPOSE_DATA
350
656
  3
AcDbVariableDictionary
350
45F
  0
DICTIONARY
  5
457
330
2
100
AcDbDictionary
280
     1
281
     1
  3
ACAD_LAYERSTATES
360
458
  0
DICTIONARY
  5
44E
330
10
100
AcDbDictionary
280
     1
281
     1
  3
ADSK_XREC_LAYER_RECONCILED
360
44F
  0
DICTIONARY
  5
450
330
73
100
AcDbDictionary
280
     1
281
     1
  3
ADSK_XREC_LAYER_RECONCILED
360
451
  0
DICTIONARY
  5
452
330
317
100
AcDbDictionary
280
     1
281
     1
  3
ADSK_XREC_LAYER_RECONCILED
360
453
  0
DICTIONARY
  5
3F0
330
1F
100
AcDbDictionary
280
     1
281
     1
  0
DICTIONARY
  5
43F
330
19B
100
AcDbDictionary
280
     1
281
     1
  3
ACAD_SORTENTS
360
440
  0
XRECORD
  5
64B
102
{ACAD_REACTORS
330
C
102
}
330
C
100
AcDbXrecord
280
     1
300
ACD
300
2014
300
ACD_F_S
  0
DICTIONARY
  5
194
102
{ACAD_REACTORS
330
C
102
}
330
C
100
AcDbDictionary
281
     1
  0
DICTIONARY
  5
647
102
{ACAD_REACTORS
330
C
102
}
330
C
100
AcDbDictionary
281
     1
  3
Imperial24
350
648
  0
DICTIONARY
  5
D
102
{ACAD_REACTORS
330
C
102
}
330
C
100
AcDbDictionary
281
     1
  0
DICTIONARY
  5
1A
102
{ACAD_REACTORS
330
C
102
}
330
C
100
AcDbDictionary
281
     1
  3
Layout1
350
1E
  3
Layout2
350
26
  3
Model
350
22
  0
DICTIONARY
  5
167
102
{ACAD_REACTORS
330
C
102
}
330
C
100
AcDbDictionary
281
     1
  3
ByBlock
350
170
  3
ByLayer
350
168
  3
Global
350
178
  0
DICTIONARY
  5
197
102
{ACAD_REACTORS
330
C
102
}
330
C
100
AcDbDictionary
281
     1
  3
Standard
350
198
  0
DICTIONARY
  5
17
102
{ACAD_REACTORS
330
C
102
}
330
C
100
AcDbDictionary
281
     1
  3
Standard
350
18
  0
DICTIONARY
  5
19
102
{ACAD_REACTORS
330
C
102
}
330
C
100
AcDbDictionary
281
     1
  0
ACDBDICTIONARYWDFLT
  5
E
102
{ACAD_REACTORS
330
C
102
}
330
C
100
AcDbDictionary
281
     1
  3
Normal
350
F
100
AcDbDictionaryWithDefault
340
F
  0
DICTIONARY
  5
47
102
{ACAD_REACTORS
330
C
102
}
330
C
100
AcDbDictionary
281
     1
  3
A0
350
48
  3
A1
350
49
  3
A2
350
4A
  3
A3
350
4B
  3
A4
350
4C
  3
A5
350
4D
  3
A6
350
4E
  3
A7
350
4F
  3
A8
350
50
  3
A9
350
51
  3
B0
350
52
  3
B1
350
53
  3
B2
350
54
  3
B3
350
55
  3
B4
350
56
  3
B5
350
57
  3
B6
350
58
  3
B7
350
59
  3
B8
350
5A
  3
B9
350
5B
  3
C0
350
5C
  3
C1
350
5D
  3
C2
350
5E
  3
C3
350
5F
  3
C4
350
60
  3
C5
350
61
  3
C6
350
62
  3
C7
350
63
  3
C8
350
64
  3
C9
350
65
  3
D0
350
66
  3
D1
350
67
  3
D2
350
68
  0
DICTIONARY
  5
645
102
{ACAD_REACTORS
330
C
102
}
330
C
100
AcDbDictionary
281
     1
  3
Imperial24
350
646
  0
DICTIONARY
  5
195
102
{ACAD_REACTORS
330
C
102
}
330
C
100
AcDbDictionary
281
     1
  3
Standard
350
196
  0
DICTIONARY
  5
180
102
{ACAD_REACTORS
330
C
102
}
330
C
100
AcDbDictionary
281
     1
  3
2dWireframe
350
186
  3
3D Hidden
350
188
  3
3dWireframe
350
187
  3
Basic
350
185
  3
Brighten
350
18C
  3
ColorChange
350
190
  3
Conceptual
350
189
  3
Dim
350
18B
  3
EdgeColorOff
350
193
  3
Facepattern
350
18F
  3
Flat
350
181
  3
FlatWithEdges
350
182
  3
Gouraud
350
183
  3
GouraudWithEdges
350
184
  3
Hidden
350
63F
  3
JitterOff
350
191
  3
Linepattern
350
18E
  3
OverhangOff
350
192
  3
Realistic
350
18A
  3
Shaded
350
644
  3
Shaded with edges
350
643
  3
Shades of Gray
350
640
  3
Sketchy
350
641
  3
Thicken
350
18D
  3
Wireframe
350
63E
  3
X-Ray
350
642
  0
XRECORD
  5
656
102
{ACAD_REACTORS
330
C
102
}
330
C
100
AcDbXrecord
280
     1
 90
        1
330
196
330
646
330
648
  0
DICTIONARY
  5
45F
102
{ACAD_REACTORS
330
C
102
}
330
C
100
AcDbDictionary
281
     1
  3
CANNOSCALE
350
463
  3
CMLEADERSTYLE
350
461
  3
CTABLESTYLE
350
460
  3
CVIEWDETAILSTYLE
350
64E
  3
CVIEWSECTIONSTYLE
350
64F
  3
LAYEREVAL
350
465
  3
LAYERNOTIFY
350
466
  3
LIGHTINGUNITS
350
464
  3
MSLTSCALE
350
462
  0
DICTIONARY
  5
458
102
{ACAD_REACTORS
330
457
102
}
330
457
100
AcDbDictionary
281
     1
  0
XRECORD
  5
44F
102
{ACAD_REACTORS
330
44E
102
}
330
44E
100
AcDbXrecord
280
     1
290
     1
  0
XRECORD
  5
451
102
{ACAD_REACTORS
330
450
102
}
330
450
100
AcDbXrecord
280
     1
290
     1
  0
XRECORD
  5
453
102
{ACAD_REACTORS
330
452
102
}
330
452
100
AcDbXrecord
280
     1
290
     1
  0
SORTENTSTABLE
  5
440
102
{ACAD_REACTORS
330
43F
102
}
330
43F
100
AcDbSortentsTable
330
19B
  0
ACDBDETAILVIEWSTYLE
  5
648
102
{ACAD_XDICTIONARY
360
654
102
}
102
{ACAD_REACTORS
330
647
102
}
330
647
100
AcDbModelDocViewStyle
 70
     0
  3
Imperial24
290
     0
100
AcDbDetailViewStyle
 70
     0
 71
     0
 90
        3
 71
     1
340
11
 62
   256
 40
0.24
340
0
 62
   256
 40
0.24
300

 40
0.36
280
     3
 71
     2
340
16
 90
       25
 62
   256
 71
     3
340
11
 62
   256
 40
0.24
 90
        1
 40
0.75
 90
        1
300
%<\AcVar ViewType \f "%tc1">% %<\AcVar ViewDetailId>%\PESCALA %<\AcVar ViewScale \f "%sn">%
 71
     4
340
16
 90
       25
 62
   256
340
16
 90
       25
 62
   256
280
     0
  0
LAYOUT
  5
1E
102
{ACAD_REACTORS
330
1A
102
}
330
1A
100
AcDbPlotSettings
  1

  2
none_device
  4

  6

 40
0.0
 41
0.0
 42
0.0
 43
0.0
 44
0.0
 45
0.0
 46
0.0
 47
0.0
 48
0.0
 49
0.0
140
0.0
141
0.0
142
1.0
143
1.0
 70
   688
 72
     0
 73
     0
 74
     5
  7

 75
    16
147
1.0
 76
     0
 77
     2
 78
   300
148
0.0
149
0.0
100
AcDbLayout
  1
Layout1
 70
     1
 71
     1
 10
0.0
 20
0.0
 11
12.0
 21
9.0
 12
0.0
 22
0.0
 32
0.0
 14
1.000000000000000E+20
 24
1.000000000000000E+20
 34
1.000000000000000E+20
 15
-1.000000000000000E+20
 25
-1.000000000000000E+20
 35
-1.000000000000000E+20
146
0.0
 13
0.0
 23
0.0
 33
0.0
 16
1.0
 26
0.0
 36
0.0
 17
0.0
 27
1.0
 37
0.0
 76
     0
330
1B
  0
LAYOUT
  5
26
102
{ACAD_REACTORS
330
1A
102
}
330
1A
100
AcDbPlotSettings
  1

  2
none_device
  4

  6

 40
0.0
 41
0.0
 42
0.0
 43
0.0
 44
0.0
 45
0.0
 46
0.0
 47
0.0
 48
0.0
 49
0.0
140
0.0
141
0.0
142
1.0
143
1.0
 70
   688
 72
     0
 73
     0
 74
     5
  7

 75
    16
147
1.0
 76
     0
 77
     2
 78
   300
148
0.0
149
0.0
100
AcDbLayout
  1
Layout2
 70
     1
 71
     2
 10
0.0
 20
0.0
 11
0.0
 21
0.0
 12
0.0
 22
0.0
 32
0.0
 14
0.0
 24
0.0
 34
0.0
 15
0.0
 25
0.0
 35
0.0
146
0.0
 13
0.0
 23
0.0
 33
0.0
 16
1.0
 26
0.0
 36
0.0
 17
0.0
 27
1.0
 37
0.0
 76
     0
330
23
  0
LAYOUT
  5
22
102
{ACAD_XDICTIONARY
360
45D
102
}
102
{ACAD_REACTORS
330
1A
102
}
330
1A
100
AcDbPlotSettings
  1

  2
none_device
  4
Letter_(8.50_x_11.00_Inches)
  6

 40
6.349999999999997
 41
6.349999999999997
 42
6.350005079999997
 43
6.350005079999997
 44
215.9
 45
279.4
 46
0.0
 47
0.0
 48
0.0
 49
0.0
140
0.0
141
0.0
142
1.0
143
1.0
 70
  1712
 72
     0
 73
     0
 74
     0
  7

 75
     0
147
1.0
 76
     0
 77
     2
 78
   300
148
0.0
149
0.0
100
AcDbLayout
  1
Model
 70
     1
 71
     0
 10
0.0
 20
0.0
 11
11.0
 21
8.5
 12
0.0
 22
0.0
 32
0.0
 14
0.0
 24
0.0
 34
0.0
 15
11.0
 25
8.5
 35
0.0
146
0.0
 13
0.0
 23
0.0
 33
0.0
 16
1.0
 26
0.0
 36
0.0
 17
0.0
 27
1.0
 37
0.0
 76
     0
330
1F
331
29
  0
MATERIAL
  5
170
102
{ACAD_XDICTIONARY
360
171
102
}
102
{ACAD_REACTORS
330
167
102
}
330
167
100
AcDbMaterial
  1
ByBlock
 72
     0
 43
0.0208333333333333
 43
0.0
 43
0.0
 43
0.0
 43
0.0
 43
0.0208333333333333
 43
0.0
 43
0.0
 43
0.0
 43
0.0
 43
1.0
 43
0.0
 43
0.0
 43
0.0
 43
0.0
 43
1.0
 77
     0
 47
0.0208333333333333
 47
0.0
 47
0.0
 47
0.0
 47
0.0
 47
0.0208333333333333
 47
0.0
 47
0.0
 47
0.0
 47
0.0
 47
1.0
 47
0.0
 47
0.0
 47
0.0
 47
0.0
 47
1.0
171
     0
 49
0.0208333333333333
 49
0.0
 49
0.0
 49
0.0
 49
0.0
 49
0.0208333333333333
 49
0.0
 49
0.0
 49
0.0
 49
0.0
 49
1.0
 49
0.0
 49
0.0
 49
0.0
 49
0.0
 49
1.0
175
     0
142
0.0208333333333333
142
0.0
142
0.0
142
0.0
142
0.0
142
0.0208333333333333
142
0.0
142
0.0
142
0.0
142
0.0
142
1.0
142
0.0
142
0.0
142
0.0
142
0.0
142
1.0
179
     0
144
0.0208333333333333
144
0.0
144
0.0
144
0.0
144
0.0
144
0.0208333333333333
144
0.0
144
0.0
144
0.0
144
0.0
144
1.0
144
0.0
144
0.0
144
0.0
144
0.0
144
1.0
147
0.0208333333333333
147
0.0
147
0.0
147
0.0
147
0.0
147
0.0208333333333333
147
0.0
147
0.0
147
0.0
147
0.0
147
1.0
147
0.0
147
0.0
147
0.0
147
0.0
147
1.0
  0
MATERIAL
  5
168
102
{ACAD_XDICTIONARY
360
169
102
}
102
{ACAD_REACTORS
330
167
102
}
330
167
100
AcDbMaterial
  1
ByLayer
 72
     0
 43
0.0208333333333333
 43
0.0
 43
0.0
 43
0.0
 43
0.0
 43
0.0208333333333333
 43
0.0
 43
0.0
 43
0.0
 43
0.0
 43
1.0
 43
0.0
 43
0.0
 43
0.0
 43
0.0
 43
1.0
 77
     0
 47
0.0208333333333333
 47
0.0
 47
0.0
 47
0.0
 47
0.0
 47
0.0208333333333333
 47
0.0
 47
0.0
 47
0.0
 47
0.0
 47
1.0
 47
0.0
 47
0.0
 47
0.0
 47
0.0
 47
1.0
171
     0
 49
0.0208333333333333
 49
0.0
 49
0.0
 49
0.0
 49
0.0
 49
0.0208333333333333
 49
0.0
 49
0.0
 49
0.0
 49
0.0
 49
1.0
 49
0.0
 49
0.0
 49
0.0
 49
0.0
 49
1.0
175
     0
142
0.0208333333333333
142
0.0
142
0.0
142
0.0
142
0.0
142
0.0208333333333333
142
0.0
142
0.0
142
0.0
142
0.0
142
1.0
142
0.0
142
0.0
142
0.0
142
0.0
142
1.0
179
     0
144
0.0208333333333333
144
0.0
144
0.0
144
0.0
144
0.0
144
0.0208333333333333
144
0.0
144
0.0
144
0.0
144
0.0
144
1.0
144
0.0
144
0.0
144
0.0
144
0.0
144
1.0
147
0.0208333333333333
147
0.0
147
0.0
147
0.0
147
0.0
147
0.0208333333333333
147
0.0
147
0.0
147
0.0
147
0.0
147
1.0
147
0.0
147
0.0
147
0.0
147
0.0
147
1.0
  0
MATERIAL
  5
178
102
{ACAD_XDICTIONARY
360
179
102
}
102
{ACAD_REACTORS
330
167
102
}
330
167
100
AcDbMaterial
  1
Global
 72
     0
 43
0.0208333333333333
 43
0.0
 43
0.0
 43
0.0
 43
0.0
 43
0.0208333333333333
 43
0.0
 43
0.0
 43
0.0
 43
0.0
 43
1.0
 43
0.0
 43
0.0
 43
0.0
 43
0.0
 43
1.0
 77
     0
 47
0.0208333333333333
 47
0.0
 47
0.0
 47
0.0
 47
0.0
 47
0.0208333333333333
 47
0.0
 47
0.0
 47
0.0
 47
0.0
 47
1.0
 47
0.0
 47
0.0
 47
0.0
 47
0.0
 47
1.0
171
     0
 49
0.0208333333333333
 49
0.0
 49
0.0
 49
0.0
 49
0.0
 49
0.0208333333333333
 49
0.0
 49
0.0
 49
0.0
 49
0.0
 49
1.0
 49
0.0
 49
0.0
 49
0.0
 49
0.0
 49
1.0
175
     0
142
0.0208333333333333
142
0.0
142
0.0
142
0.0
142
0.0
142
0.0208333333333333
142
0.0
142
0.0
142
0.0
142
0.0
142
1.0
142
0.0
142
0.0
142
0.0
142
0.0
142
1.0
179
     0
144
0.0208333333333333
144
0.0
144
0.0
144
0.0
144
0.0
144
0.0208333333333333
144
0.0
144
0.0
144
0.0
144
0.0
144
1.0
144
0.0
144
0.0
144
0.0
144
0.0
144
1.0
147
0.0208333333333333
147
0.0
147
0.0
147
0.0
147
0.0
147
0.0208333333333333
147
0.0
147
0.0
147
0.0
147
0.0
147
1.0
147
0.0
147
0.0
147
0.0
147
0.0
147
1.0
  0
MLEADERSTYLE
  5
198
102
{ACAD_REACTORS
330
197
102
}
330
197
100
AcDbMLeaderStyle
179
     2
170
     2
171
     1
172
     0
 90
        2
 40
0.0
 41
0.0
173
     1
 91
-1056964608
340
14
 92
       -2
290
     1
 42
0.09
291
     1
 43
0.36
  3
Standard
 44
0.18
300

342
11
174
     1
178
     6
175
     1
176
     0
 93
-1056964608
 45
0.18
292
     0
297
     0
 46
0.18
 94
-1056964608
 47
1.0
 49
1.0
140
1.0
293
     1
141
0.0
294
     1
177
     0
142
1.0
295
     0
296
     0
143
0.125
271
     0
272
     9
273
     9
298
     0
  0
MLINESTYLE
  5
18
102
{ACAD_REACTORS
330
17
102
}
330
17
100
AcDbMlineStyle
  2
STANDARD
 70
     0
  3

 62
   256
 51
90.0
 52
90.0
 71
     2
 49
0.5
 62
   256
  6
BYLAYER
 49
-0.5
 62
   256
  6
BYLAYER
  0
ACDBPLACEHOLDER
  5
F
102
{ACAD_REACTORS
330
E
102
}
330
E
  0
SCALE
  5
48
102
{ACAD_REACTORS
330
47
102
}
330
47
100
AcDbScale
 70
     0
300
1:1
140
1.0
141
1.0
290
     1
  0
SCALE
  5
49
102
{ACAD_REACTORS
330
47
102
}
330
47
100
AcDbScale
 70
     0
300
1:2
140
1.0
141
2.0
290
     0
  0
SCALE
  5
4A
102
{ACAD_REACTORS
330
47
102
}
330
47
100
AcDbScale
 70
     0
300
1:4
140
1.0
141
4.0
290
     0
  0
SCALE
  5
4B
102
{ACAD_REACTORS
330
47
102
}
330
47
100
AcDbScale
 70
     0
300
1:5
140
1.0
141
5.0
290
     0
  0
SCALE
  5
4C
102
{ACAD_REACTORS
330
47
102
}
330
47
100
AcDbScale
 70
     0
300
1:8
140
1.0
141
8.0
290
     0
  0
SCALE
  5
4D
102
{ACAD_REACTORS
330
47
102
}
330
47
100
AcDbScale
 70
     0
300
1:10
140
1.0
141
10.0
290
     0
  0
SCALE
  5
4E
102
{ACAD_REACTORS
330
47
102
}
330
47
100
AcDbScale
 70
     0
300
1:16
140
1.0
141
16.0
290
     0
  0
SCALE
  5
4F
102
{ACAD_REACTORS
330
47
102
}
330
47
100
AcDbScale
 70
     0
300
1:20
140
1.0
141
20.0
290
     0
  0
SCALE
  5
50
102
{ACAD_REACTORS
330
47
102
}
330
47
100
AcDbScale
 70
     0
300
1:30
140
1.0
141
30.0
290
     0
  0
SCALE
  5
51
102
{ACAD_REACTORS
330
47
102
}
330
47
100
AcDbScale
 70
     0
300
1:40
140
1.0
141
40.0
290
     0
  0
SCALE
  5
52
102
{ACAD_REACTORS
330
47
102
}
330
47
100
AcDbScale
 70
     0
300
1:50
140
1.0
141
50.0
290
     0
  0
SCALE
  5
53
102
{ACAD_REACTORS
330
47
102
}
330
47
100
AcDbScale
 70
     0
300
1:100
140
1.0
141
100.0
290
     0
  0
SCALE
  5
54
102
{ACAD_REACTORS
330
47
102
}
330
47
100
AcDbScale
 70
     0
300
2:1
140
2.0
141
1.0
290
     0
  0
SCALE
  5
55
102
{ACAD_REACTORS
330
47
102
}
330
47
100
AcDbScale
 70
     0
300
4:1
140
4.0
141
1.0
290
     0
  0
SCALE
  5
56
102
{ACAD_REACTORS
330
47
102
}
330
47
100
AcDbScale
 70
     0
300
8:1
140
8.0
141
1.0
290
     0
  0
SCALE
  5
57
102
{ACAD_REACTORS
330
47
102
}
330
47
100
AcDbScale
 70
     0
300
10:1
140
10.0
141
1.0
290
     0
  0
SCALE
  5
58
102
{ACAD_REACTORS
330
47
102
}
330
47
100
AcDbScale
 70
     0
300
100:1
140
100.0
141
1.0
290
     0
  0
SCALE
  5
59
102
{ACAD_REACTORS
330
47
102
}
330
47
100
AcDbScale
 70
     0
300
1/128" = 1'-0"
140
0.0078125
141
12.0
290
     0
  0
SCALE
  5
5A
102
{ACAD_REACTORS
330
47
102
}
330
47
100
AcDbScale
 70
     0
300
1/64" = 1'-0"
140
0.015625
141
12.0
290
     0
  0
SCALE
  5
5B
102
{ACAD_REACTORS
330
47
102
}
330
47
100
AcDbScale
 70
     0
300
1/32" = 1'-0"
140
0.03125
141
12.0
290
     0
  0
SCALE
  5
5C
102
{ACAD_REACTORS
330
47
102
}
330
47
100
AcDbScale
 70
     0
300
1/16" = 1'-0"
140
0.0625
141
12.0
290
     0
  0
SCALE
  5
5D
102
{ACAD_REACTORS
330
47
102
}
330
47
100
AcDbScale
 70
     0
300
3/32" = 1'-0"
140
0.09375
141
12.0
290
     0
  0
SCALE
  5
5E
102
{ACAD_REACTORS
330
47
102
}
330
47
100
AcDbScale
 70
     0
300
1/8" = 1'-0"
140
0.125
141
12.0
290
     0
  0
SCALE
  5
5F
102
{ACAD_REACTORS
330
47
102
}
330
47
100
AcDbScale
 70
     0
300
3/16" = 1'-0"
140
0.1875
141
12.0
290
     0
  0
SCALE
  5
60
102
{ACAD_REACTORS
330
47
102
}
330
47
100
AcDbScale
 70
     0
300
1/4" = 1'-0"
140
0.25
141
12.0
290
     0
  0
SCALE
  5
61
102
{ACAD_REACTORS
330
47
102
}
330
47
100
AcDbScale
 70
     0
300
3/8" = 1'-0"
140
0.375
141
12.0
290
     0
  0
SCALE
  5
62
102
{ACAD_REACTORS
330
47
102
}
330
47
100
AcDbScale
 70
     0
300
1/2" = 1'-0"
140
0.5
141
12.0
290
     0
  0
SCALE
  5
63
102
{ACAD_REACTORS
330
47
102
}
330
47
100
AcDbScale
 70
     0
300
3/4" = 1'-0"
140
0.75
141
12.0
290
     0
  0
SCALE
  5
64
102
{ACAD_REACTORS
330
47
102
}
330
47
100
AcDbScale
 70
     0
300
1" = 1'-0"
140
1.0
141
12.0
290
     0
  0
SCALE
  5
65
102
{ACAD_REACTORS
330
47
102
}
330
47
100
AcDbScale
 70
     0
300
1-1/2" = 1'-0"
140
1.5
141
12.0
290
     0
  0
SCALE
  5
66
102
{ACAD_REACTORS
330
47
102
}
330
47
100
AcDbScale
 70
     0
300
3" = 1'-0"
140
3.0
141
12.0
290
     0
  0
SCALE
  5
67
102
{ACAD_REACTORS
330
47
102
}
330
47
100
AcDbScale
 70
     0
300
6" = 1'-0"
140
6.0
141
12.0
290
     0
  0
SCALE
  5
68
102
{ACAD_REACTORS
330
47
102
}
330
47
100
AcDbScale
 70
     0
300
1'-0" = 1'-0"
140
12.0
141
12.0
290
     0
  0
ACDBSECTIONVIEWSTYLE
  5
646
102
{ACAD_XDICTIONARY
360
652
102
}
102
{ACAD_REACTORS
330
645
102
}
330
645
100
AcDbModelDocViewStyle
 70
     0
  3
Imperial24
290
     0
100
AcDbSectionViewStyle
 70
     0
 71
     0
 90
       78
 71
     1
340
11
 62
   256
 40
0.24
340
0
340
0
 62
   256
 40
0.24
300
I, O, Q, S, X, Z
 40
0.48
 90
        3
 40
0.18
 90
        1
 71
     2
340
16
 90
       25
 62
   256
340
16
 90
       50
 62
   256
 40
0.24
 40
0.0
 40
0.24
 71
     3
340
11
 62
   256
 40
0.24
 90
        1
 40
0.75
 90
        1
300
%<\AcVar ViewType \f "%tc1">% %<\AcVar ViewSectionStartId>%-%<\AcVar ViewSectionEndId>%\PESCALA %<\AcVar ViewScale \f "%sn">%
 71
     4
 62
   256
 62
   257
300
ANSI31
 40
1.0
 90
        0
290
     0
290
     0
 90
        6
 40
0.0
 40
1.570796326794896
 40
0.2617993877991494
 40
1.308996938995747
 40
-0.2617993877991494
 40
1.832595714594046
  0
TABLESTYLE
  5
196
102
{ACAD_XDICTIONARY
360
467
102
}
102
{ACAD_REACTORS
330
195
102
}
330
195
100
AcDbTableStyle
280
     0
  3
Standard
 70
     0
 71
     0
 40
0.06
 41
0.06
280
     0
281
     0
  7
Standard
140
0.18
170
     2
 62
     0
 63
     7
283
     0
 90
      512
 91
        0
  1

274
    -2
284
     1
 64
     0
275
    -2
285
     1
 65
     0
276
    -2
286
     1
 66
     0
277
    -2
287
     1
 67
     0
278
    -2
288
     1
 68
     0
279
    -2
289
     1
 69
     0
  7
Standard
140
0.25
170
     5
 62
     0
 63
     7
283
     0
 90
      512
 91
        0
  1

274
    -2
284
     1
 64
     0
275
    -2
285
     1
 65
     0
276
    -2
286
     1
 66
     0
277
    -2
287
     1
 67
     0
278
    -2
288
     1
 68
     0
279
    -2
289
     1
 69
     0
  7
Standard
140
0.18
170
     5
 62
     0
 63
     7
283
     0
 90
      512
 91
        0
  1

274
    -2
284
     1
 64
     0
275
    -2
285
     1
 65
     0
276
    -2
286
     1
 66
     0
277
    -2
287
     1
 67
     0
278
    -2
288
     1
 68
     0
279
    -2
289
     1
 69
     0
  0
VISUALSTYLE
  5
186
102
{ACAD_REACTORS
330
180
102
}
330
180
100
AcDbVisualStyle
  2
2dWireframe
 70
     4
177
     3
291
     0
 70
    58
 90
        0
176
     1
 90
        2
176
     1
 90
        0
176
     1
 90
        0
176
     1
 40
0.6
176
     1
 40
30.0
176
     1
 62
     7
420
 16777215
176
     1
 90
        1
176
     1
 90
        4
176
     1
 62
     7
176
     1
 62
   257
176
     1
 90
        1
176
     1
 90
        1
176
     1
 40
1.0
176
     1
 90
        0
176
     1
 62
   257
176
     1
 40
1.0
176
     1
 90
        1
176
     1
 90
        6
176
     1
 90
        2
176
     1
 62
     7
176
     1
 90
        5
176
     1
 90
        0
176
     1
 90
        0
176
     1
290
     0
176
     1
 90
        1
176
     1
 40
0.0
176
     1
 90
        0
176
     1
290
     1
176
     1
290
     1
176
     1
290
     0
176
     1
290
     0
176
     1
290
     0
176
     1
290
     0
176
     1
290
     0
176
     1
290
     0
176
     1
290
     0
176
     1
 90
       50
176
     1
 40
0.0
176
     1
 40
1.0
176
     1
 90
        0
176
     1
 62
    18
420
        0
176
     1
 90
       50
176
     1
 90
        3
176
     1
 62
     5
420
      255
176
     1
290
     0
176
     1
 90
       50
176
     1
 90
       50
176
     1
 90
       50
176
     1
290
     0
176
     1
 90
       50
176
     1
 62
   256
176
     0
 40
1.0
176
     0
 90
        2
176
     1
  1
strokes_ogs.tif
176
     1
290
     0
176
     1
 40
1.0
176
     1
 40
1.0
176
     1
  0
VISUALSTYLE
  5
188
102
{ACAD_REACTORS
330
180
102
}
330
180
100
AcDbVisualStyle
  2
3D Hidden
 70
     6
177
     3
291
     0
 70
    58
 90
        1
176
     1
 90
        2
176
     1
 90
        2
176
     1
 90
        0
176
     1
 40
0.6
176
     1
 40
30.0
176
     1
 62
     7
420
 16777215
176
     1
 90
        2
176
     1
 90
        2
176
     1
 62
     7
176
     1
 62
   257
176
     1
 90
        2
176
     1
 90
        1
176
     1
 40
179.0
176
     1
 90
        0
176
     1
 62
   257
176
     1
 40
1.0
176
     1
 90
        1
176
     1
 90
        6
176
     1
 90
        2
176
     1
 62
     7
176
     1
 90
        3
176
     1
 90
        0
176
     1
 90
        0
176
     1
290
     0
176
     1
 90
        1
176
     1
 40
0.0
176
     1
 90
        0
176
     1
290
     0
176
     1
290
     1
176
     1
290
     1
176
     1
290
     0
176
     1
290
     0
176
     1
290
     0
176
     1
290
     0
176
     1
290
     0
176
     1
290
     0
176
     1
 90
       50
176
     1
 40
0.0
176
     1
 40
1.0
176
     1
 90
        0
176
     1
 62
    18
420
        0
176
     1
 90
       50
176
     1
 90
        3
176
     1
 62
     5
420
      255
176
     1
290
     0
176
     1
 90
       50
176
     1
 90
       50
176
     1
 90
       50
176
     1
290
     0
176
     1
 90
       50
176
     1
 62
   256
176
     0
 40
1.0
176
     0
 90
        2
176
     1
  1
strokes_ogs.tif
176
     1
290
     0
176
     1
 40
1.0
176
     1
 40
1.0
176
     1
  0
VISUALSTYLE
  5
187
102
{ACAD_REACTORS
330
180
102
}
330
180
100
AcDbVisualStyle
  2
3dWireframe
 70
     5
177
     3
291
     0
 70
    58
 90
        0
176
     1
 90
        2
176
     1
 90
        0
176
     1
 90
        0
176
     1
 40
0.6
176
     1
 40
30.0
176
     1
 62
     7
420
 16777215
176
     1
 90
        1
176
     1
 90
        4
176
     1
 62
     7
176
     1
 62
   257
176
     1
 90
        1
176
     1
 90
        1
176
     1
 40
1.0
176
     1
 90
        0
176
     1
 62
   257
176
     1
 40
1.0
176
     1
 90
        1
176
     1
 90
        6
176
     1
 90
        2
176
     1
 62
     7
176
     1
 90
        5
176
     1
 90
        0
176
     1
 90
        0
176
     1
290
     0
176
     1
 90
        1
176
     1
 40
0.0
176
     1
 90
        0
176
     1
290
     0
176
     1
290
     1
176
     1
290
     1
176
     1
290
     0
176
     1
290
     0
176
     1
290
     0
176
     1
290
     0
176
     1
290
     0
176
     1
290
     0
176
     1
 90
       50
176
     1
 40
0.0
176
     1
 40
1.0
176
     1
 90
        0
176
     1
 62
    18
420
        0
176
     1
 90
       50
176
     1
 90
        3
176
     1
 62
     5
420
      255
176
     1
290
     0
176
     1
 90
       50
176
     1
 90
       50
176
     1
 90
       50
176
     1
290
     0
176
     1
 90
       50
176
     1
 62
   256
176
     0
 40
1.0
176
     0
 90
        2
176
     1
  1
strokes_ogs.tif
176
     1
290
     0
176
     1
 40
1.0
176
     1
 40
1.0
176
     1
  0
VISUALSTYLE
  5
185
102
{ACAD_REACTORS
330
180
102
}
330
180
100
AcDbVisualStyle
  2
Basic
 70
     7
177
     3
291
     1
 70
    58
 90
        1
176
     1
 90
        0
176
     1
 90
        1
176
     1
 90
        0
176
     1
 40
0.6
176
     1
 40
30.0
176
     1
 62
     7
420
 16777215
176
     1
 90
        0
176
     1
 90
        4
176
     1
 62
     7
176
     1
 62
   257
176
     1
 90
        1
176
     1
 90
        1
176
     1
 40
1.0
176
     1
 90
        8
176
     1
 62
     7
176
     1
 40
1.0
176
     1
 90
        1
176
     1
 90
        6
176
     1
 90
        2
176
     1
 62
     7
176
     1
 90
        5
176
     1
 90
        0
176
     1
 90
        0
176
     1
290
     0
176
     1
 90
        1
176
     1
 40
0.0
176
     1
 90
        0
176
     1
290
     0
176
     1
290
     1
176
     1
290
     1
176
     1
290
     0
176
     1
290
     0
176
     1
290
     0
176
     1
290
     0
176
     1
290
     0
176
     1
290
     0
176
     1
 90
       50
176
     1
 40
0.0
176
     1
 40
1.0
176
     1
 90
        0
176
     1
 62
    18
420
        0
176
     1
 90
       50
176
     1
 90
        3
176
     1
 62
     5
420
      255
176
     1
290
     0
176
     1
 90
       50
176
     1
 90
       50
176
     1
 90
       50
176
     1
290
     0
176
     1
 90
       50
176
     1
 62
   256
176
     0
 40
1.0
176
     0
 90
        2
176
     1
  1
strokes_ogs.tif
176
     1
290
     0
176
     1
 40
1.0
176
     1
 40
1.0
176
     1
  0
VISUALSTYLE
  5
18C
102
{ACAD_REACTORS
330
180
102
}
330
180
100
AcDbVisualStyle
  2
Brighten
 70
    12
177
     3
291
     1
 70
    58
 90
        2
176
     1
 90
        2
176
     1
 90
        0
176
     1
 90
        0
176
     1
 40
0.6
176
     1
 40
30.0
176
     1
 62
     7
420
 16777215
176
     1
 90
        1
176
     1
 90
        4
176
     1
 62
     7
176
     1
 62
   257
176
     1
 90
        1
176
     1
 90
        1
176
     1
 40
1.0
176
     1
 90
        8
176
     1
 62
     7
176
     1
 40
1.0
176
     1
 90
        1
176
     1
 90
        6
176
     1
 90
        2
176
     1
 62
     7
176
     1
 90
        5
176
     1
 90
        0
176
     1
 90
        0
176
     1
290
     0
176
     1
 90
        1
176
     1
 40
50.0
176
     1
 90
        0
176
     1
290
     0
176
     1
290
     1
176
     1
290
     1
176
     1
290
     0
176
     1
290
     0
176
     1
290
     0
176
     1
290
     0
176
     1
290
     0
176
     1
290
     0
176
     1
 90
       50
176
     1
 40
0.0
176
     1
 40
1.0
176
     1
 90
        0
176
     1
 62
    18
420
        0
176
     1
 90
       50
176
     1
 90
        3
176
     1
 62
     5
420
      255
176
     1
290
     0
176
     1
 90
       50
176
     1
 90
       50
176
     1
 90
       50
176
     1
290
     0
176
     1
 90
       50
176
     1
 62
   256
176
     0
 40
1.0
176
     0
 90
        2
176
     1
  1
strokes_ogs.tif
176
     1
290
     0
176
     1
 40
1.0
176
     1
 40
1.0
176
     1
  0
VISUALSTYLE
  5
190
102
{ACAD_REACTORS
330
180
102
}
330
180
100
AcDbVisualStyle
  2
ColorChange
 70
    16
177
     3
291
     1
 70
    58
 90
        2
176
     1
 90
        2
176
     1
 90
        3
176
     1
 90
        0
176
     1
 40
0.6
176
     1
 40
30.0
176
     1
 62
     8
420
  8421504
176
     1
 90
        1
176
     1
 90
        4
176
     1
 62
     7
176
     1
 62
   257
176
     1
 90
        1
176
     1
 90
        1
176
     1
 40
1.0
176
     1
 90
        8
176
     1
 62
     8
420
  8421504
176
     1
 40
1.0
176
     1
 90
        1
176
     1
 90
        6
176
     1
 90
        2
176
     1
 62
     7
176
     1
 90
        5
176
     1
 90
        0
176
     1
 90
        0
176
     1
290
     0
176
     1
 90
        1
176
     1
 40
0.0
176
     1
 90
        0
176
     1
290
     0
176
     1
290
     1
176
     1
290
     1
176
     1
290
     0
176
     1
290
     0
176
     1
290
     0
176
     1
290
     0
176
     1
290
     0
176
     1
290
     0
176
     1
 90
       50
176
     1
 40
0.0
176
     1
 40
1.0
176
     1
 90
        0
176
     1
 62
    18
420
        0
176
     1
 90
       50
176
     1
 90
        3
176
     1
 62
     5
420
      255
176
     1
290
     0
176
     1
 90
       50
176
     1
 90
       50
176
     1
 90
       50
176
     1
290
     0
176
     1
 90
       50
176
     1
 62
   256
176
     0
 40
1.0
176
     0
 90
        2
176
     1
  1
strokes_ogs.tif
176
     1
290
     0
176
     1
 40
1.0
176
     1
 40
1.0
176
     1
  0
VISUALSTYLE
  5
189
102
{ACAD_REACTORS
330
180
102
}
330
180
100
AcDbVisualStyle
  2
Conceptual
 70
     9
177
     3
291
     0
 70
    58
 90
        3
176
     1
 90
        2
176
     1
 90
        0
176
     1
 90
        0
176
     1
 40
0.6
176
     1
 40
30.0
176
     1
 62
     7
420
 16777215
176
     1
 90
        2
176
     1
 90
        2
176
     1
 62
     7
176
     1
 62
   257
176
     1
 90
        1
176
     1
 90
        1
176
     1
 40
179.0
176
     1
 90
        8
176
     1
 62
     7
176
     1
 40
1.0
176
     1
 90
        1
176
     1
 90
        6
176
     1
 90
        2
176
     1
 62
     7
176
     1
 90
        3
176
     1
 90
        0
176
     1
 90
        0
176
     1
290
     0
176
     1
 90
        1
176
     1
 40
0.0
176
     1
 90
        0
176
     1
290
     0
176
     1
290
     1
176
     1
290
     1
176
     1
290
     0
176
     1
290
     0
176
     1
290
     0
176
     1
290
     0
176
     1
290
     0
176
     1
290
     0
176
     1
 90
       50
176
     1
 40
0.0
176
     1
 40
1.0
176
     1
 90
        0
176
     1
 62
    18
420
        0
176
     1
 90
       50
176
     1
 90
        3
176
     1
 62
     5
420
      255
176
     1
290
     0
176
     1
 90
       50
176
     1
 90
       50
176
     1
 90
       50
176
     1
290
     0
176
     1
 90
       50
176
     1
 62
   256
176
     0
 40
1.0
176
     0
 90
        2
176
     1
  1
strokes_ogs.tif
176
     1
290
     0
176
     1
 40
1.0
176
     1
 40
1.0
176
     1
  0
VISUALSTYLE
  5
18B
102
{ACAD_REACTORS
330
180
102
}
330
180
100
AcDbVisualStyle
  2
Dim
 70
    11
177
     3
291
     1
 70
    58
 90
        2
176
     1
 90
        2
176
     1
 90
        0
176
     1
 90
        0
176
     1
 40
0.6
176
     1
 40
30.0
176
     1
 62
     7
420
 16777215
176
     1
 90
        1
176
     1
 90
        4
176
     1
 62
     7
176
     1
 62
   257
176
     1
 90
        1
176
     1
 90
        1
176
     1
 40
1.0
176
     1
 90
        8
176
     1
 62
     7
176
     1
 40
1.0
176
     1
 90
        1
176
     1
 90
        6
176
     1
 90
        2
176
     1
 62
     7
176
     1
 90
        5
176
     1
 90
        0
176
     1
 90
        0
176
     1
290
     0
176
     1
 90
        1
176
     1
 40
-50.0
176
     1
 90
        0
176
     1
290
     0
176
     1
290
     1
176
     1
290
     1
176
     1
290
     0
176
     1
290
     0
176
     1
290
     0
176
     1
290
     0
176
     1
290
     0
176
     1
290
     0
176
     1
 90
       50
176
     1
 40
0.0
176
     1
 40
1.0
176
     1
 90
        0
176
     1
 62
    18
420
        0
176
     1
 90
       50
176
     1
 90
        3
176
     1
 62
     5
420
      255
176
     1
290
     0
176
     1
 90
       50
176
     1
 90
       50
176
     1
 90
       50
176
     1
290
     0
176
     1
 90
       50
176
     1
 62
   256
176
     0
 40
1.0
176
     0
 90
        2
176
     1
  1
strokes_ogs.tif
176
     1
290
     0
176
     1
 40
1.0
176
     1
 40
1.0
176
     1
  0
VISUALSTYLE
  5
193
102
{ACAD_REACTORS
330
180
102
}
330
180
100
AcDbVisualStyle
  2
EdgeColorOff
 70
    22
177
     3
291
     1
 70
    58
 90
        2
176
     0
 90
        2
176
     0
 90
        0
176
     0
 90
        0
176
     0
 40
0.6
176
     0
 40
30.0
176
     0
 62
     7
420
 16777215
176
     0
 90
        1
176
     0
 90
        4
176
     0
 62
     7
176
     0
 62
   257
176
     0
 90
        1
176
     0
 90
        1
176
     0
 40
1.0
176
     0
 90
        8
176
     2
 62
     7
176
     0
 40
1.0
176
     0
 90
        1
176
     0
 90
        6
176
     0
 90
        2
176
     0
 62
     7
176
     0
 90
        5
176
     0
 90
        0
176
     0
 90
        0
176
     0
290
     0
176
     0
 90
        1
176
     0
 40
0.0
176
     0
 90
        0
176
     0
290
     0
176
     1
290
     1
176
     1
290
     1
176
     1
290
     0
176
     1
290
     0
176
     1
290
     0
176
     1
290
     0
176
     1
290
     0
176
     1
290
     0
176
     1
 90
       50
176
     1
 40
0.0
176
     1
 40
1.0
176
     1
 90
        0
176
     1
 62
    18
420
        0
176
     1
 90
       50
176
     1
 90
        3
176
     1
 62
     5
420
      255
176
     1
290
     0
176
     1
 90
       50
176
     1
 90
       50
176
     1
 90
       50
176
     1
290
     0
176
     1
 90
       50
176
     1
 62
   256
176
     0
 40
1.0
176
     0
 90
        2
176
     1
  1
strokes_ogs.tif
176
     1
290
     0
176
     1
 40
1.0
176
     1
 40
1.0
176
     1
  0
VISUALSTYLE
  5
18F
102
{ACAD_REACTORS
330
180
102
}
330
180
100
AcDbVisualStyle
  2
Facepattern
 70
    15
177
     3
291
     1
 70
    58
 90
        2
176
     1
 90
        2
176
     1
 90
        0
176
     1
 90
        0
176
     1
 40
0.6
176
     1
 40
30.0
176
     1
 62
     7
420
 16777215
176
     1
 90
        1
176
     1
 90
        4
176
     1
 62
     7
176
     1
 62
   257
176
     1
 90
        1
176
     1
 90
        1
176
     1
 40
1.0
176
     1
 90
        8
176
     1
 62
     7
176
     1
 40
1.0
176
     1
 90
        1
176
     1
 90
        6
176
     1
 90
        2
176
     1
 62
     7
176
     1
 90
        5
176
     1
 90
        0
176
     1
 90
        0
176
     1
290
     0
176
     1
 90
        1
176
     1
 40
0.0
176
     1
 90
        0
176
     1
290
     0
176
     1
290
     1
176
     1
290
     1
176
     1
290
     0
176
     1
290
     0
176
     1
290
     0
176
     1
290
     0
176
     1
290
     0
176
     1
290
     0
176
     1
 90
       50
176
     1
 40
0.0
176
     1
 40
1.0
176
     1
 90
        0
176
     1
 62
    18
420
        0
176
     1
 90
       50
176
     1
 90
        3
176
     1
 62
     5
420
      255
176
     1
290
     0
176
     1
 90
       50
176
     1
 90
       50
176
     1
 90
       50
176
     1
290
     0
176
     1
 90
       50
176
     1
 62
   256
176
     0
 40
1.0
176
     0
 90
        2
176
     1
  1
strokes_ogs.tif
176
     1
290
     0
176
     1
 40
1.0
176
     1
 40
1.0
176
     1
  0
VISUALSTYLE
  5
181
102
{ACAD_REACTORS
330
180
102
}
330
180
100
AcDbVisualStyle
  2
Flat
 70
     0
177
     3
291
     1
 70
    58
 90
        2
176
     1
 90
        1
176
     1
 90
        1
176
     1
 90
        2
176
     1
 40
0.6
176
     1
 40
30.0
176
     1
 62
     7
420
 16777215
176
     1
 90
        0
176
     1
 90
        4
176
     1
 62
     7
176
     1
 62
   257
176
     1
 90
        1
176
     1
 90
        1
176
     1
 40
1.0
176
     1
 90
        8
176
     1
 62
     7
176
     1
 40
1.0
176
     1
 90
        1
176
     1
 90
        6
176
     1
 90
        2
176
     1
 62
     7
176
     1
 90
        5
176
     1
 90
        0
176
     1
 90
        0
176
     1
290
     0
176
     1
 90
       13
176
     1
 40
0.0
176
     1
 90
        0
176
     1
290
     0
176
     1
290
     1
176
     1
290
     1
176
     1
290
     0
176
     1
290
     0
176
     1
290
     0
176
     1
290
     0
176
     1
290
     0
176
     1
290
     0
176
     1
 90
       50
176
     1
 40
0.0
176
     1
 40
1.0
176
     1
 90
        0
176
     1
 62
    18
420
        0
176
     1
 90
       50
176
     1
 90
        3
176
     1
 62
     5
420
      255
176
     1
290
     0
176
     1
 90
       50
176
     1
 90
       50
176
     1
 90
       50
176
     1
290
     0
176
     1
 90
       50
176
     1
 62
   256
176
     0
 40
1.0
176
     0
 90
        2
176
     1
  1
strokes_ogs.tif
176
     1
290
     0
176
     1
 40
1.0
176
     1
 40
1.0
176
     1
  0
VISUALSTYLE
  5
182
102
{ACAD_REACTORS
330
180
102
}
330
180
100
AcDbVisualStyle
  2
FlatWithEdges
 70
     1
177
     3
291
     1
 70
    58
 90
        2
176
     1
 90
        1
176
     1
 90
        1
176
     1
 90
        2
176
     1
 40
0.6
176
     1
 40
30.0
176
     1
 62
     7
420
 16777215
176
     1
 90
        1
176
     1
 90
        4
176
     1
 62
     7
176
     1
 62
   257
176
     1
 90
        1
176
     1
 90
        1
176
     1
 40
1.0
176
     1
 90
        0
176
     1
 62
   257
176
     1
 40
1.0
176
     1
 90
        1
176
     1
 90
        6
176
     1
 90
        2
176
     1
 62
     7
176
     1
 90
        5
176
     1
 90
        0
176
     1
 90
        0
176
     1
290
     0
176
     1
 90
       13
176
     1
 40
0.0
176
     1
 90
        0
176
     1
290
     0
176
     1
290
     1
176
     1
290
     1
176
     1
290
     0
176
     1
290
     0
176
     1
290
     0
176
     1
290
     0
176
     1
290
     0
176
     1
290
     0
176
     1
 90
       50
176
     1
 40
0.0
176
     1
 40
1.0
176
     1
 90
        0
176
     1
 62
    18
420
        0
176
     1
 90
       50
176
     1
 90
        3
176
     1
 62
     5
420
      255
176
     1
290
     0
176
     1
 90
       50
176
     1
 90
       50
176
     1
 90
       50
176
     1
290
     0
176
     1
 90
       50
176
     1
 62
   256
176
     0
 40
1.0
176
     0
 90
        2
176
     1
  1
strokes_ogs.tif
176
     1
290
     0
176
     1
 40
1.0
176
     1
 40
1.0
176
     1
  0
VISUALSTYLE
  5
183
102
{ACAD_REACTORS
330
180
102
}
330
180
100
AcDbVisualStyle
  2
Gouraud
 70
     2
177
     3
291
     1
 70
    58
 90
        2
176
     1
 90
        2
176
     1
 90
        1
176
     1
 90
        2
176
     1
 40
0.6
176
     1
 40
30.0
176
     1
 62
     7
420
 16777215
176
     1
 90
        0
176
     1
 90
        4
176
     1
 62
     7
176
     1
 62
   257
176
     1
 90
        1
176
     1
 90
        1
176
     1
 40
1.0
176
     1
 90
        0
176
     1
 62
     7
176
     1
 40
1.0
176
     1
 90
        1
176
     1
 90
        6
176
     1
 90
        2
176
     1
 62
     7
176
     1
 90
        5
176
     1
 90
        0
176
     1
 90
        0
176
     1
290
     0
176
     1
 90
       13
176
     1
 40
0.0
176
     1
 90
        0
176
     1
290
     0
176
     1
290
     1
176
     1
290
     1
176
     1
290
     0
176
     1
290
     0
176
     1
290
     0
176
     1
290
     0
176
     1
290
     0
176
     1
290
     0
176
     1
 90
       50
176
     1
 40
0.0
176
     1
 40
1.0
176
     1
 90
        0
176
     1
 62
    18
420
        0
176
     1
 90
       50
176
     1
 90
        3
176
     1
 62
     5
420
      255
176
     1
290
     0
176
     1
 90
       50
176
     1
 90
       50
176
     1
 90
       50
176
     1
290
     0
176
     1
 90
       50
176
     1
 62
   256
176
     0
 40
1.0
176
     0
 90
        2
176
     1
  1
strokes_ogs.tif
176
     1
290
     0
176
     1
 40
1.0
176
     1
 40
1.0
176
     1
  0
VISUALSTYLE
  5
184
102
{ACAD_REACTORS
330
180
102
}
330
180
100
AcDbVisualStyle
  2
GouraudWithEdges
 70
     3
177
     3
291
     1
 70
    58
 90
        2
176
     1
 90
        2
176
     1
 90
        1
176
     1
 90
        2
176
     1
 40
0.6
176
     1
 40
30.0
176
     1
 62
     7
420
 16777215
176
     1
 90
        1
176
     1
 90
        4
176
     1
 62
     7
176
     1
 62
   257
176
     1
 90
        1
176
     1
 90
        1
176
     1
 40
1.0
176
     1
 90
        0
176
     1
 62
   257
176
     1
 40
1.0
176
     1
 90
        1
176
     1
 90
        6
176
     1
 90
        2
176
     1
 62
     7
176
     1
 90
        5
176
     1
 90
        0
176
     1
 90
        0
176
     1
290
     0
176
     1
 90
       13
176
     1
 40
0.0
176
     1
 90
        0
176
     1
290
     0
176
     1
290
     1
176
     1
290
     1
176
     1
290
     0
176
     1
290
     0
176
     1
290
     0
176
     1
290
     0
176
     1
290
     0
176
     1
290
     0
176
     1
 90
       50
176
     1
 40
0.0
176
     1
 40
1.0
176
     1
 90
        0
176
     1
 62
    18
420
        0
176
     1
 90
       50
176
     1
 90
        3
176
     1
 62
     5
420
      255
176
     1
290
     0
176
     1
 90
       50
176
     1
 90
       50
176
     1
 90
       50
176
     1
290
     0
176
     1
 90
       50
176
     1
 62
   256
176
     0
 40
1.0
176
     0
 90
        2
176
     1
  1
strokes_ogs.tif
176
     1
290
     0
176
     1
 40
1.0
176
     1
 40
1.0
176
     1
  0
VISUALSTYLE
  5
63F
102
{ACAD_REACTORS
330
180
102
}
330
180
100
AcDbVisualStyle
  2
Hidden
 70
     6
177
     3
291
     0
 70
    58
 90
        1
176
     1
 90
        2
176
     1
 90
        2
176
     1
 90
        0
176
     1
 40
0.6
176
     1
 40
30.0
176
     1
 62
     7
420
 16777215
176
     1
 90
        2
176
     1
 90
        2
176
     1
 62
     7
176
     1
 62
   257
176
     1
 90
        2
176
     1
 90
        1
176
     1
 40
40.0
176
     1
 90
        0
176
     1
 62
   257
176
     1
 40
1.0
176
     1
 90
        1
176
     1
 90
        6
176
     1
 90
        2
176
     1
 62
     7
176
     1
 90
        3
176
     1
 90
        0
176
     1
 90
        0
176
     1
290
     0
176
     1
 90
        1
176
     1
 40
0.0
176
     1
 90
        0
176
     1
290
     0
176
     1
290
     1
176
     1
290
     1
176
     1
290
     0
176
     1
290
     0
176
     1
290
     0
176
     1
290
     0
176
     1
290
     0
176
     1
290
     0
176
     1
 90
       50
176
     1
 40
0.0
176
     1
 40
1.0
176
     1
 90
        0
176
     1
 62
    18
420
        0
176
     1
 90
       50
176
     1
 90
        3
176
     1
 62
     5
420
      255
176
     1
290
     0
176
     1
 90
       50
176
     1
 90
       50
176
     1
 90
       50
176
     1
290
     0
176
     1
 90
       50
176
     1
 62
   256
176
     0
 40
1.0
176
     0
 90
        2
176
     1
  1
strokes_ogs.tif
176
     1
290
     0
176
     1
 40
1.0
176
     1
 40
1.0
176
     1
  0
VISUALSTYLE
  5
191
102
{ACAD_REACTORS
330
180
102
}
330
180
100
AcDbVisualStyle
  2
JitterOff
 70
    20
177
     3
291
     1
 70
    58
 90
        2
176
     0
 90
        2
176
     0
 90
        0
176
     0
 90
        0
176
     0
 40
0.6
176
     0
 40
30.0
176
     0
 62
     7
420
 16777215
176
     0
 90
        1
176
     0
 90
        4
176
     0
 62
     7
176
     0
 62
   257
176
     0
 90
        1
176
     0
 90
        1
176
     0
 40
1.0
176
     0
 90
       10
176
     2
 62
     7
176
     0
 40
1.0
176
     0
 90
        1
176
     0
 90
        6
176
     0
 90
        2
176
     0
 62
     7
176
     0
 90
        5
176
     0
 90
        0
176
     0
 90
        0
176
     0
290
     0
176
     0
 90
        1
176
     0
 40
0.0
176
     0
 90
        0
176
     0
290
     0
176
     1
290
     1
176
     1
290
     1
176
     1
290
     0
176
     1
290
     0
176
     1
290
     0
176
     1
290
     0
176
     1
290
     0
176
     1
290
     0
176
     1
 90
       50
176
     1
 40
0.0
176
     1
 40
1.0
176
     1
 90
        0
176
     1
 62
    18
420
        0
176
     1
 90
       50
176
     1
 90
        3
176
     1
 62
     5
420
      255
176
     1
290
     0
176
     1
 90
       50
176
     1
 90
       50
176
     1
 90
       50
176
     1
290
     0
176
     1
 90
       50
176
     1
 62
   256
176
     0
 40
1.0
176
     0
 90
        2
176
     1
  1
strokes_ogs.tif
176
     1
290
     0
176
     1
 40
1.0
176
     1
 40
1.0
176
     1
  0
VISUALSTYLE
  5
18E
102
{ACAD_REACTORS
330
180
102
}
330
180
100
AcDbVisualStyle
  2
Linepattern
 70
    14
177
     3
291
     1
 70
    58
 90
        2
176
     1
 90
        2
176
     1
 90
        0
176
     1
 90
        0
176
     1
 40
0.6
176
     1
 40
30.0
176
     1
 62
     7
420
 16777215
176
     1
 90
        1
176
     1
 90
        4
176
     1
 62
     7
176
     1
 62
   257
176
     1
 90
        7
176
     1
 90
        7
176
     1
 40
1.0
176
     1
 90
        8
176
     1
 62
     7
176
     1
 40
1.0
176
     1
 90
        1
176
     1
 90
        6
176
     1
 90
        2
176
     1
 62
     7
176
     1
 90
        5
176
     1
 90
        0
176
     1
 90
        0
176
     1
290
     0
176
     1
 90
        1
176
     1
 40
0.0
176
     1
 90
        0
176
     1
290
     0
176
     1
290
     1
176
     1
290
     1
176
     1
290
     0
176
     1
290
     0
176
     1
290
     0
176
     1
290
     0
176
     1
290
     0
176
     1
290
     0
176
     1
 90
       50
176
     1
 40
0.0
176
     1
 40
1.0
176
     1
 90
        0
176
     1
 62
    18
420
        0
176
     1
 90
       50
176
     1
 90
        3
176
     1
 62
     5
420
      255
176
     1
290
     0
176
     1
 90
       50
176
     1
 90
       50
176
     1
 90
       50
176
     1
290
     0
176
     1
 90
       50
176
     1
 62
   256
176
     0
 40
1.0
176
     0
 90
        2
176
     1
  1
strokes_ogs.tif
176
     1
290
     0
176
     1
 40
1.0
176
     1
 40
1.0
176
     1
  0
VISUALSTYLE
  5
192
102
{ACAD_REACTORS
330
180
102
}
330
180
100
AcDbVisualStyle
  2
OverhangOff
 70
    21
177
     3
291
     1
 70
    58
 90
        2
176
     0
 90
        2
176
     0
 90
        0
176
     0
 90
        0
176
     0
 40
0.6
176
     0
 40
30.0
176
     0
 62
     7
420
 16777215
176
     0
 90
        1
176
     0
 90
        4
176
     0
 62
     7
176
     0
 62
   257
176
     0
 90
        1
176
     0
 90
        1
176
     0
 40
1.0
176
     0
 90
        9
176
     2
 62
     7
176
     0
 40
1.0
176
     0
 90
        1
176
     0
 90
        6
176
     0
 90
        2
176
     0
 62
     7
176
     0
 90
        5
176
     0
 90
        0
176
     0
 90
        0
176
     0
290
     0
176
     0
 90
        1
176
     0
 40
0.0
176
     0
 90
        0
176
     0
290
     0
176
     1
290
     1
176
     1
290
     1
176
     1
290
     0
176
     1
290
     0
176
     1
290
     0
176
     1
290
     0
176
     1
290
     0
176
     1
290
     0
176
     1
 90
       50
176
     1
 40
0.0
176
     1
 40
1.0
176
     1
 90
        0
176
     1
 62
    18
420
        0
176
     1
 90
       50
176
     1
 90
        3
176
     1
 62
     5
420
      255
176
     1
290
     0
176
     1
 90
       50
176
     1
 90
       50
176
     1
 90
       50
176
     1
290
     0
176
     1
 90
       50
176
     1
 62
   256
176
     0
 40
1.0
176
     0
 90
        2
176
     1
  1
strokes_ogs.tif
176
     1
290
     0
176
     1
 40
1.0
176
     1
 40
1.0
176
     1
  0
VISUALSTYLE
  5
18A
102
{ACAD_REACTORS
330
180
102
}
330
180
100
AcDbVisualStyle
  2
Realistic
 70
     8
177
     3
291
     0
 70
    58
 90
        2
176
     1
 90
        2
176
     1
 90
        0
176
     1
 90
        0
176
     1
 40
0.6
176
     1
 40
30.0
176
     1
 62
     7
420
 16777215
176
     1
 90
        1
176
     1
 90
        0
176
     1
 62
     7
176
     1
 62
   257
176
     1
 90
        1
176
     1
 90
        1
176
     1
 40
1.0
176
     1
 90
        8
176
     1
 62
     8
420
  7895160
176
     1
 40
1.0
176
     1
 90
        1
176
     1
 90
        6
176
     1
 90
        2
176
     1
 62
     7
176
     1
 90
        5
176
     1
 90
        0
176
     1
 90
        0
176
     1
290
     0
176
     1
 90
       13
176
     1
 40
0.0
176
     1
 90
        0
176
     1
290
     0
176
     1
290
     1
176
     1
290
     1
176
     1
290
     0
176
     1
290
     0
176
     1
290
     0
176
     1
290
     0
176
     1
290
     0
176
     1
290
     0
176
     1
 90
       50
176
     1
 40
0.0
176
     1
 40
1.0
176
     1
 90
        0
176
     1
 62
    18
420
        0
176
     1
 90
       50
176
     1
 90
        3
176
     1
 62
     5
420
      255
176
     1
290
     0
176
     1
 90
       50
176
     1
 90
       50
176
     1
 90
       50
176
     1
290
     0
176
     1
 90
       50
176
     1
 62
   256
176
     0
 40
1.0
176
     0
 90
        2
176
     1
  1
strokes_ogs.tif
176
     1
290
     0
176
     1
 40
1.0
176
     1
 40
1.0
176
     1
  0
VISUALSTYLE
  5
644
102
{ACAD_REACTORS
330
180
102
}
330
180
100
AcDbVisualStyle
  2
Shaded
 70
    27
177
     3
291
     0
 70
    58
 90
        2
176
     1
 90
        2
176
     1
 90
        1
176
     1
 90
        2
176
     1
 40
0.6
176
     1
 40
30.0
176
     1
 62
     7
420
 16777215
176
     1
 90
        0
176
     1
 90
        4
176
     1
 62
     7
176
     1
 62
   257
176
     1
 90
        1
176
     1
 90
        1
176
     1
 40
1.0
176
     1
 90
        8
176
     1
 62
   257
176
     1
 40
1.0
176
     1
 90
        1
176
     1
 90
        6
176
     1
 90
        2
176
     1
 62
     8
420
  7895160
176
     1
 90
        3
176
     1
 90
        0
176
     1
 90
        0
176
     1
290
     0
176
     1
 90
        5
176
     1
 40
0.0
176
     1
 90
        0
176
     1
290
     0
176
     1
290
     1
176
     1
290
     1
176
     1
290
     0
176
     1
290
     0
176
     1
290
     0
176
     1
290
     0
176
     1
290
     0
176
     1
290
     0
176
     1
 90
       50
176
     1
 40
0.0
176
     1
 40
1.0
176
     1
 90
        0
176
     1
 62
    18
420
        0
176
     1
 90
       50
176
     1
 90
        3
176
     1
 62
     5
420
      255
176
     1
290
     0
176
     1
 90
       50
176
     1
 90
       50
176
     1
 90
       50
176
     1
290
     0
176
     1
 90
       50
176
     1
 62
   256
176
     0
 40
1.0
176
     0
 90
        2
176
     1
  1
strokes_ogs.tif
176
     1
290
     0
176
     1
 40
1.0
176
     1
 40
1.0
176
     1
  0
VISUALSTYLE
  5
643
102
{ACAD_REACTORS
330
180
102
}
330
180
100
AcDbVisualStyle
  2
Shaded with edges
 70
    26
177
     3
291
     0
 70
    58
 90
        2
176
     1
 90
        2
176
     1
 90
        1
176
     1
 90
        2
176
     1
 40
0.6
176
     1
 40
30.0
176
     1
 62
     7
420
 16777215
176
     1
 90
        1
176
     1
 90
       10
176
     1
 62
     7
176
     1
 62
   257
176
     1
 90
        2
176
     1
 90
        1
176
     1
 40
1.0
176
     1
 90
        8
176
     1
 62
   257
176
     1
 40
1.0
176
     1
 90
        1
176
     1
 90
        6
176
     1
 90
        2
176
     1
 62
     7
176
     1
 90
        3
176
     1
 90
        0
176
     1
 90
        0
176
     1
290
     0
176
     1
 90
        5
176
     1
 40
0.0
176
     1
 90
        0
176
     1
290
     0
176
     1
290
     1
176
     1
290
     1
176
     1
290
     0
176
     1
290
     0
176
     1
290
     0
176
     1
290
     0
176
     1
290
     0
176
     1
290
     0
176
     1
 90
       50
176
     1
 40
0.0
176
     1
 40
1.0
176
     1
 90
        0
176
     1
 62
    18
420
        0
176
     1
 90
       50
176
     1
 90
        3
176
     1
 62
     5
420
      255
176
     1
290
     0
176
     1
 90
       50
176
     1
 90
       50
176
     1
 90
       50
176
     1
290
     0
176
     1
 90
       50
176
     1
 62
   256
176
     0
 40
1.0
176
     0
 90
        2
176
     1
  1
strokes_ogs.tif
176
     1
290
     0
176
     1
 40
1.0
176
     1
 40
1.0
176
     1
  0
VISUALSTYLE
  5
640
102
{ACAD_REACTORS
330
180
102
}
330
180
100
AcDbVisualStyle
  2
Shades of Gray
 70
    23
177
     3
291
     0
 70
    58
 90
        2
176
     1
 90
        2
176
     1
 90
        3
176
     1
 90
        0
176
     1
 40
0.6
176
     1
 40
30.0
176
     1
 62
     7
420
 16777215
176
     1
 90
        2
176
     1
 90
        2
176
     1
 62
     7
176
     1
 62
     7
176
     1
 90
        1
176
     1
 90
        1
176
     1
 40
40.0
176
     1
 90
        8
176
     1
 62
     7
176
     1
 40
1.0
176
     1
 90
        1
176
     1
 90
        6
176
     1
 90
        2
176
     1
 62
     7
176
     1
 90
        3
176
     1
 90
        0
176
     1
 90
        0
176
     1
290
     0
176
     1
 90
        1
176
     1
 40
0.0
176
     1
 90
        0
176
     1
290
     0
176
     1
290
     1
176
     1
290
     1
176
     1
290
     0
176
     1
290
     0
176
     1
290
     0
176
     1
290
     0
176
     1
290
     0
176
     1
290
     0
176
     1
 90
       50
176
     1
 40
0.0
176
     1
 40
1.0
176
     1
 90
        0
176
     1
 62
    18
420
        0
176
     1
 90
       50
176
     1
 90
        3
176
     1
 62
     5
420
      255
176
     1
290
     0
176
     1
 90
       50
176
     1
 90
       50
176
     1
 90
       50
176
     1
290
     0
176
     1
 90
       50
176
     1
 62
   256
176
     0
 40
1.0
176
     0
 90
        2
176
     1
  1
strokes_ogs.tif
176
     1
290
     0
176
     1
 40
1.0
176
     1
 40
1.0
176
     1
  0
VISUALSTYLE
  5
641
102
{ACAD_REACTORS
330
180
102
}
330
180
100
AcDbVisualStyle
  2
Sketchy
 70
    24
177
     3
291
     0
 70
    58
 90
        1
176
     1
 90
        2
176
     1
 90
        2
176
     1
 90
        0
176
     1
 40
0.6
176
     1
 40
30.0
176
     1
 62
     7
420
 16777215
176
     1
 90
        2
176
     1
 90
        2
176
     1
 62
     7
176
     1
 62
     7
176
     1
 90
        1
176
     1
 90
        1
176
     1
 40
40.0
176
     1
 90
       11
176
     1
 62
     7
176
     1
 40
1.0
176
     1
 90
        1
176
     1
 90
        6
176
     1
 90
        2
176
     1
 62
     7
176
     1
 90
        6
176
     1
 90
        0
176
     1
 90
        0
176
     1
290
     0
176
     1
 90
        1
176
     1
 40
0.0
176
     1
 90
        0
176
     1
290
     0
176
     1
290
     1
176
     1
290
     1
176
     1
290
     0
176
     1
290
     0
176
     1
290
     0
176
     1
290
     0
176
     1
290
     0
176
     1
290
     0
176
     1
 90
       50
176
     1
 40
0.0
176
     1
 40
1.0
176
     1
 90
        0
176
     1
 62
    18
420
        0
176
     1
 90
       50
176
     1
 90
        3
176
     1
 62
     5
420
      255
176
     1
290
     0
176
     1
 90
       50
176
     1
 90
       50
176
     1
 90
       50
176
     1
290
     0
176
     1
 90
       50
176
     1
 62
   256
176
     0
 40
1.0
176
     0
 90
        2
176
     1
  1
strokes_ogs.tif
176
     1
290
     0
176
     1
 40
1.0
176
     1
 40
1.0
176
     1
  0
VISUALSTYLE
  5
18D
102
{ACAD_REACTORS
330
180
102
}
330
180
100
AcDbVisualStyle
  2
Thicken
 70
    13
177
     3
291
     1
 70
    58
 90
        2
176
     1
 90
        2
176
     1
 90
        0
176
     1
 90
        0
176
     1
 40
0.6
176
     1
 40
30.0
176
     1
 62
     7
420
 16777215
176
     1
 90
        1
176
     1
 90
        4
176
     1
 62
     7
176
     1
 62
   257
176
     1
 90
        1
176
     1
 90
        1
176
     1
 40
1.0
176
     1
 90
       12
176
     1
 62
     7
176
     1
 40
1.0
176
     1
 90
        1
176
     1
 90
        6
176
     1
 90
        2
176
     1
 62
     7
176
     1
 90
        5
176
     1
 90
        0
176
     1
 90
        0
176
     1
290
     0
176
     1
 90
        1
176
     1
 40
0.0
176
     1
 90
        0
176
     1
290
     0
176
     1
290
     1
176
     1
290
     1
176
     1
290
     0
176
     1
290
     0
176
     1
290
     0
176
     1
290
     0
176
     1
290
     0
176
     1
290
     0
176
     1
 90
       50
176
     1
 40
0.0
176
     1
 40
1.0
176
     1
 90
        0
176
     1
 62
    18
420
        0
176
     1
 90
       50
176
     1
 90
        3
176
     1
 62
     5
420
      255
176
     1
290
     0
176
     1
 90
       50
176
     1
 90
       50
176
     1
 90
       50
176
     1
290
     0
176
     1
 90
       50
176
     1
 62
   256
176
     0
 40
1.0
176
     0
 90
        2
176
     1
  1
strokes_ogs.tif
176
     1
290
     0
176
     1
 40
1.0
176
     1
 40
1.0
176
     1
  0
VISUALSTYLE
  5
63E
102
{ACAD_REACTORS
330
180
102
}
330
180
100
AcDbVisualStyle
  2
Wireframe
 70
     5
177
     3
291
     0
 70
    58
 90
        0
176
     1
 90
        2
176
     1
 90
        0
176
     1
 90
        0
176
     1
 40
0.6
176
     1
 40
30.0
176
     1
 62
     7
420
 16777215
176
     1
 90
        1
176
     1
 90
        4
176
     1
 62
     7
176
     1
 62
   257
176
     1
 90
        1
176
     1
 90
        1
176
     1
 40
1.0
176
     1
 90
        0
176
     1
 62
   257
176
     1
 40
1.0
176
     1
 90
        1
176
     1
 90
        6
176
     1
 90
        2
176
     1
 62
     7
176
     1
 90
        3
176
     1
 90
        0
176
     1
 90
        0
176
     1
290
     0
176
     1
 90
        1
176
     1
 40
0.0
176
     1
 90
        0
176
     1
290
     0
176
     1
290
     1
176
     1
290
     1
176
     1
290
     0
176
     1
290
     0
176
     1
290
     0
176
     1
290
     0
176
     1
290
     0
176
     1
290
     0
176
     1
 90
       50
176
     1
 40
0.0
176
     1
 40
1.0
176
     1
 90
        0
176
     1
 62
    18
420
        0
176
     1
 90
       50
176
     1
 90
        3
176
     1
 62
     5
420
      255
176
     1
290
     0
176
     1
 90
       50
176
     1
 90
       50
176
     1
 90
       50
176
     1
290
     0
176
     1
 90
       50
176
     1
 62
   256
176
     0
 40
1.0
176
     0
 90
        2
176
     1
  1
strokes_ogs.tif
176
     1
290
     0
176
     1
 40
1.0
176
     1
 40
1.0
176
     1
  0
VISUALSTYLE
  5
642
102
{ACAD_REACTORS
330
180
102
}
330
180
100
AcDbVisualStyle
  2
X-Ray
 70
    25
177
     3
291
     0
 70
    58
 90
        2
176
     1
 90
        2
176
     1
 90
        1
176
     1
 90
        1
176
     1
 40
0.5
176
     1
 40
30.0
176
     1
 62
     7
420
 16777215
176
     1
 90
        1
176
     1
 90
        0
176
     1
 62
     7
176
     1
 62
   257
176
     1
 90
        1
176
     1
 90
        1
176
     1
 40
1.0
176
     1
 90
        8
176
     1
 62
     7
176
     1
 40
1.0
176
     1
 90
        1
176
     1
 90
        6
176
     1
 90
        2
176
     1
 62
     7
176
     1
 90
        3
176
     1
 90
        0
176
     1
 90
        0
176
     1
290
     0
176
     1
 90
       13
176
     1
 40
0.0
176
     1
 90
        0
176
     1
290
     0
176
     1
290
     1
176
     1
290
     1
176
     1
290
     0
176
     1
290
     0
176
     1
290
     0
176
     1
290
     0
176
     1
290
     0
176
     1
290
     0
176
     1
 90
       50
176
     1
 40
0.0
176
     1
 40
1.0
176
     1
 90
        0
176
     1
 62
    18
420
        0
176
     1
 90
       50
176
     1
 90
        3
176
     1
 62
     5
420
      255
176
     1
290
     0
176
     1
 90
       50
176
     1
 90
       50
176
     1
 90
       50
176
     1
290
     0
176
     1
 90
       50
176
     1
 62
   256
176
     0
 40
1.0
176
     0
 90
        2
176
     1
  1
strokes_ogs.tif
176
     1
290
     0
176
     1
 40
1.0
176
     1
 40
1.0
176
     1
  0
DICTIONARYVAR
  5
463
102
{ACAD_REACTORS
330
45F
102
}
330
45F
100
DictionaryVariables
280
     0
  1
1:1
  0
DICTIONARYVAR
  5
461
102
{ACAD_REACTORS
330
45F
102
}
330
45F
100
DictionaryVariables
280
     0
  1
STANDARD
  0
DICTIONARYVAR
  5
460
102
{ACAD_REACTORS
330
45F
102
}
330
45F
100
DictionaryVariables
280
     0
  1
STANDARD
  0
DICTIONARYVAR
  5
64E
102
{ACAD_REACTORS
330
45F
102
}
330
45F
100
DictionaryVariables
280
     0
  1
Imperial24
  0
DICTIONARYVAR
  5
64F
102
{ACAD_REACTORS
330
45F
102
}
330
45F
100
DictionaryVariables
280
     0
  1
Imperial24
  0
DICTIONARYVAR
  5
465
102
{ACAD_REACTORS
330
45F
102
}
330
45F
100
DictionaryVariables
280
     0
  1
1
  0
DICTIONARYVAR
  5
466
102
{ACAD_REACTORS
330
45F
102
}
330
45F
100
DictionaryVariables
280
     0
  1
15
  0
DICTIONARYVAR
  5
464
102
{ACAD_REACTORS
330
45F
102
}
330
45F
100
DictionaryVariables
280
     0
  1
0
  0
DICTIONARYVAR
  5
462
102
{ACAD_REACTORS
330
45F
102
}
330
45F
100
DictionaryVariables
280
     0
  1
0
  0
DICTIONARY
  5
654
330
648
100
AcDbDictionary
280
     1
281
     1
  3
ACAD_XREC_ROUNDTRIP
360
655
  0
DICTIONARY
  5
45D
330
22
100
AcDbDictionary
280
     1
281
     1
  0
DICTIONARY
  5
171
330
170
100
AcDbDictionary
280
     1
281
     1
  3
BUMPTILE
360
173
  3
DIFFUSETILE
360
172
  3
OPACITYTILE
360
176
  3
REFLECTIONTILE
360
175
  3
REFRACTIONTILE
360
177
  3
SPECULARTILE
360
174
  0
DICTIONARY
  5
169
330
168
100
AcDbDictionary
280
     1
281
     1
  3
BUMPTILE
360
16B
  3
DIFFUSETILE
360
16A
  3
OPACITYTILE
360
16E
  3
REFLECTIONTILE
360
16D
  3
REFRACTIONTILE
360
16F
  3
SPECULARTILE
360
16C
  0
DICTIONARY
  5
179
330
178
100
AcDbDictionary
280
     1
281
     1
  3
BUMPTILE
360
17B
  3
DIFFUSETILE
360
17A
  3
OPACITYTILE
360
17E
  3
REFLECTIONTILE
360
17D
  3
REFRACTIONTILE
360
17F
  3
SPECULARTILE
360
17C
  0
DICTIONARY
  5
652
330
646
100
AcDbDictionary
280
     1
281
     1
  3
ACAD_XREC_ROUNDTRIP
360
653
  0
DICTIONARY
  5
467
330
196
100
AcDbDictionary
280
     1
281
     1
  3
ACAD_ROUNDTRIP_2008_TABLESTYLE_CELLSTYLEMAP
360
651
  0
XRECORD
  5
655
102
{ACAD_REACTORS
330
654
102
}
330
654
100
AcDbXrecord
280
     1
102
DISPLAYNAME
  1
Imperial24
102
FLAGS
 90
        0
  0
XRECORD
  5
173
102
{ACAD_REACTORS
330
171
102
}
330
171
100
AcDbXrecord
280
     1
270
     1
271
     1
  0
XRECORD
  5
172
102
{ACAD_REACTORS
330
171
102
}
330
171
100
AcDbXrecord
280
     1
270
     1
271
     1
  0
XRECORD
  5
176
102
{ACAD_REACTORS
330
171
102
}
330
171
100
AcDbXrecord
280
     1
270
     1
271
     1
  0
XRECORD
  5
175
102
{ACAD_REACTORS
330
171
102
}
330
171
100
AcDbXrecord
280
     1
270
     1
271
     1
  0
XRECORD
  5
177
102
{ACAD_REACTORS
330
171
102
}
330
171
100
AcDbXrecord
280
     1
270
     1
271
     1
  0
XRECORD
  5
174
102
{ACAD_REACTORS
330
171
102
}
330
171
100
AcDbXrecord
280
     1
270
     1
271
     1
  0
XRECORD
  5
16B
102
{ACAD_REACTORS
330
169
102
}
330
169
100
AcDbXrecord
280
     1
270
     1
271
     1
  0
XRECORD
  5
16A
102
{ACAD_REACTORS
330
169
102
}
330
169
100
AcDbXrecord
280
     1
270
     1
271
     1
  0
XRECORD
  5
16E
102
{ACAD_REACTORS
330
169
102
}
330
169
100
AcDbXrecord
280
     1
270
     1
271
     1
  0
XRECORD
  5
16D
102
{ACAD_REACTORS
330
169
102
}
330
169
100
AcDbXrecord
280
     1
270
     1
271
     1
  0
XRECORD
  5
16F
102
{ACAD_REACTORS
330
169
102
}
330
169
100
AcDbXrecord
280
     1
270
     1
271
     1
  0
XRECORD
  5
16C
102
{ACAD_REACTORS
330
169
102
}
330
169
100
AcDbXrecord
280
     1
270
     1
271
     1
  0
XRECORD
  5
17B
102
{ACAD_REACTORS
330
179
102
}
330
179
100
AcDbXrecord
280
     1
270
     1
271
     1
  0
XRECORD
  5
17A
102
{ACAD_REACTORS
330
179
102
}
330
179
100
AcDbXrecord
280
     1
270
     1
271
     1
  0
XRECORD
  5
17E
102
{ACAD_REACTORS
330
179
102
}
330
179
100
AcDbXrecord
280
     1
270
     1
271
     1
  0
XRECORD
  5
17D
102
{ACAD_REACTORS
330
179
102
}
330
179
100
AcDbXrecord
280
     1
270
     1
271
     1
  0
XRECORD
  5
17F
102
{ACAD_REACTORS
330
179
102
}
330
179
100
AcDbXrecord
280
     1
270
     1
271
     1
  0
XRECORD
  5
17C
102
{ACAD_REACTORS
330
179
102
}
330
179
100
AcDbXrecord
280
     1
270
     1
271
     1
  0
XRECORD
  5
653
102
{ACAD_REACTORS
330
652
102
}
330
652
100
AcDbXrecord
280
     1
102
DISPLAYNAME
  1
Imperial24
102
FLAGS
 90
        0
  0
CELLSTYLEMAP
  5
651
102
{ACAD_REACTORS
330
467
102
}
330
467
100
AcDbCellStyleMap
 90
        3
300
CELLSTYLE
  1
TABLEFORMAT_BEGIN
 90
        5
170
     1
 91
        0
 92
    32768
 62
   257
 93
        1
300
CONTENTFORMAT
  1
CONTENTFORMAT_BEGIN
 90
        0
 91
        0
 92
      512
 93
        0
300

 40
0.0
140
1.0
 94
        5
 62
     0
340
11
144
0.25
309
CONTENTFORMAT_END
171
     1
301
MARGIN
  1
CELLMARGIN_BEGIN
 40
0.06
 40
0.06
 40
0.06
 40
0.06
 40
0.18
 40
0.18
309
CELLMARGIN_END
 94
        6
 95
        1
302
GRIDFORMAT
  1
GRIDFORMAT_BEGIN
 90
        0
 91
        1
 62
     0
 92
       -2
340
0
 93
        0
 40
0.045
309
GRIDFORMAT_END
 95
        2
302
GRIDFORMAT
  1
GRIDFORMAT_BEGIN
 90
        0
 91
        1
 62
     0
 92
       -2
340
0
 93
        0
 40
0.045
309
GRIDFORMAT_END
 95
        4
302
GRIDFORMAT
  1
GRIDFORMAT_BEGIN
 90
        0
 91
        1
 62
     0
 92
       -2
340
0
 93
        0
 40
0.045
309
GRIDFORMAT_END
 95
        8
302
GRIDFORMAT
  1
GRIDFORMAT_BEGIN
 90
        0
 91
        1
 62
     0
 92
       -2
340
0
 93
        0
 40
0.045
309
GRIDFORMAT_END
 95
       16
302
GRIDFORMAT
  1
GRIDFORMAT_BEGIN
 90
        0
 91
        1
 62
     0
 92
       -2
340
0
 93
        0
 40
0.045
309
GRIDFORMAT_END
 95
       32
302
GRIDFORMAT
  1
GRIDFORMAT_BEGIN
 90
        0
 91
        1
 62
     0
 92
       -2
340
0
 93
        0
 40
0.045
309
GRIDFORMAT_END
309
TABLEFORMAT_END
  1
CELLSTYLE_BEGIN
 90
        1
 91
        1
300
_TITLE
309
CELLSTYLE_END
300
CELLSTYLE
  1
TABLEFORMAT_BEGIN
 90
        5
170
     1
 91
        0
 92
        0
 62
   257
 93
        1
300
CONTENTFORMAT
  1
CONTENTFORMAT_BEGIN
 90
        0
 91
        0
 92
      512
 93
        0
300

 40
0.0
140
1.0
 94
        5
 62
     0
340
11
144
0.18
309
CONTENTFORMAT_END
171
     1
301
MARGIN
  1
CELLMARGIN_BEGIN
 40
0.06
 40
0.06
 40
0.06
 40
0.06
 40
0.18
 40
0.18
309
CELLMARGIN_END
 94
        6
 95
        1
302
GRIDFORMAT
  1
GRIDFORMAT_BEGIN
 90
        0
 91
        1
 62
     0
 92
       -2
340
0
 93
        0
 40
0.045
309
GRIDFORMAT_END
 95
        2
302
GRIDFORMAT
  1
GRIDFORMAT_BEGIN
 90
        0
 91
        1
 62
     0
 92
       -2
340
0
 93
        0
 40
0.045
309
GRIDFORMAT_END
 95
        4
302
GRIDFORMAT
  1
GRIDFORMAT_BEGIN
 90
        0
 91
        1
 62
     0
 92
       -2
340
0
 93
        0
 40
0.045
309
GRIDFORMAT_END
 95
        8
302
GRIDFORMAT
  1
GRIDFORMAT_BEGIN
 90
        0
 91
        1
 62
     0
 92
       -2
340
0
 93
        0
 40
0.045
309
GRIDFORMAT_END
 95
       16
302
GRIDFORMAT
  1
GRIDFORMAT_BEGIN
 90
        0
 91
        1
 62
     0
 92
       -2
340
0
 93
        0
 40
0.045
309
GRIDFORMAT_END
 95
       32
302
GRIDFORMAT
  1
GRIDFORMAT_BEGIN
 90
        0
 91
        1
 62
     0
 92
       -2
340
0
 93
        0
 40
0.045
309
GRIDFORMAT_END
309
TABLEFORMAT_END
  1
CELLSTYLE_BEGIN
 90
        2
 91
        1
300
_HEADER
309
CELLSTYLE_END
300
CELLSTYLE
  1
TABLEFORMAT_BEGIN
 90
        5
170
     1
 91
        0
 92
        0
 62
   257
 93
        1
300
CONTENTFORMAT
  1
CONTENTFORMAT_BEGIN
 90
        0
 91
        0
 92
      512
 93
        0
300

 40
0.0
140
1.0
 94
        2
 62
     0
340
11
144
0.18
309
CONTENTFORMAT_END
171
     1
301
MARGIN
  1
CELLMARGIN_BEGIN
 40
0.06
 40
0.06
 40
0.06
 40
0.06
 40
0.18
 40
0.18
309
CELLMARGIN_END
 94
        6
 95
        1
302
GRIDFORMAT
  1
GRIDFORMAT_BEGIN
 90
        0
 91
        1
 62
     0
 92
       -2
340
0
 93
        0
 40
0.045
309
GRIDFORMAT_END
 95
        2
302
GRIDFORMAT
  1
GRIDFORMAT_BEGIN
 90
        0
 91
        1
 62
     0
 92
       -2
340
0
 93
        0
 40
0.045
309
GRIDFORMAT_END
 95
        4
302
GRIDFORMAT
  1
GRIDFORMAT_BEGIN
 90
        0
 91
        1
 62
     0
 92
       -2
340
0
 93
        0
 40
0.045
309
GRIDFORMAT_END
 95
        8
302
GRIDFORMAT
  1
GRIDFORMAT_BEGIN
 90
        0
 91
        1
 62
     0
 92
       -2
340
0
 93
        0
 40
0.045
309
GRIDFORMAT_END
 95
       16
302
GRIDFORMAT
  1
GRIDFORMAT_BEGIN
 90
        0
 91
        1
 62
     0
 92
       -2
340
0
 93
        0
 40
0.045
309
GRIDFORMAT_END
 95
       32
302
GRIDFORMAT
  1
GRIDFORMAT_BEGIN
 90
        0
 91
        1
 62
     0
 92
       -2
340
0
 93
        0
 40
0.045
309
GRIDFORMAT_END
309
TABLEFORMAT_END
  1
CELLSTYLE_BEGIN
 90
        3
 91
        2
300
_DATA
309
CELLSTYLE_END
  0
ENDSEC
  0
SECTION
  2
ACDSDATA
 70
     2
 71
     6
  0
ACDSSCHEMA
 90
        0
  1
AcDb_Thumbnail_Schema
  2
AcDbDs::ID
280
    10
 91
        8
  2
Thumbnail_Data
280
    15
 91
        0
101
ACDSRECORD
 95
        0
 90
        1
  2
AcDbDs::TreatedAsObjectData
280
     1
291
     1
101
ACDSRECORD
 95
        0
 90
        2
  2
AcDbDs::Legacy
280
     1
291
     1
101
ACDSRECORD
  1
AcDbDs::ID
 90
        3
  2
AcDs:Indexable
280
     1
291
     1
101
ACDSRECORD
  1
AcDbDs::ID
 90
        4
  2
AcDbDs::HandleAttribute
280
     7
282
     1
  0
ACDSSCHEMA
 90
        1
  1
AcDbDs::TreatedAsObjectDataSchema
  2
AcDbDs::TreatedAsObjectData
280
     1
 91
        0
  0
ACDSSCHEMA
 90
        2
  1
AcDbDs::LegacySchema
  2
AcDbDs::Legacy
280
     1
 91
        0
  0
ACDSSCHEMA
 90
        3
  1
AcDbDs::IndexedPropertySchema
  2
AcDs:Indexable
280
     1
 91
        0
  0
ACDSSCHEMA
 90
        4
  1
AcDbDs::HandleAttributeSchema
  2
AcDbDs::HandleAttribute
280
     7
 91
        1
284
     1
  0
ACDSRECORD
 90
        0
  2
AcDbDs::ID
280
    10
320
22
  2
Thumbnail_Data
280
    15
 94
     1351
310
89504E470D0A1A0A0000000D49484452000001000000006C0803000000B2ED9CC100000300504C5445000000000000FFFFFF0000000000000000000000000000000000000000000000000000330000660000990000CC0000FF0033000033330033660033990033CC0033FF0066000066330066660066990066CC0066FF0099
310
000099330099660099990099CC0099FF00CC0000CC3300CC6600CC9900CCCC00CCFF00FF0000FF3300FF6600FF9900FFCC00FFFF3300003300333300663300993300CC3300FF3333003333333333663333993333CC3333FF3366003366333366663366993366CC3366FF3399003399333399663399993399CC3399FF33CC00
310
33CC3333CC6633CC9933CCCC33CCFF33FF0033FF3333FF6633FF9933FFCC33FFFF6600006600336600666600996600CC6600FF6633006633336633666633996633CC6633FF6666006666336666666666996666CC6666FF6699006699336699666699996699CC6699FF66CC0066CC3366CC6666CC9966CCCC66CCFF66FF0066
310
FF3366FF6666FF9966FFCC66FFFF9900009900339900669900999900CC9900FF9933009933339933669933999933CC9933FF9966009966339966669966999966CC9966FF9999009999339999669999999999CC9999FF99CC0099CC3399CC6699CC9999CCCC99CCFF99FF0099FF3399FF6699FF9999FFCC99FFFFCC0000CC00
310
33CC0066CC0099CC00CCCC00FFCC3300CC3333CC3366CC3399CC33CCCC33FFCC6600CC6633CC6666CC6699CC66CCCC66FFCC9900CC9933CC9966CC9999CC99CCCC99FFCCCC00CCCC33CCCC66CCCC99CCCCCCCCCCFFCCFF00CCFF33CCFF66CCFF99CCFFCCCCFFFFFF0000FF0033FF0066FF0099FF00CCFF00FFFF3300FF3333
310
FF3366FF3399FF33CCFF33FFFF6600FF6633FF6666FF6699FF66CCFF66FFFF9900FF9933FF9966FF9999FF99CCFF99FFFFCC00FFCC33FFCC66FFCC99FFCCCCFFCCFFFFFF00FFFF33FFFF66FFFF99FFFFCCFFFFFF0000000D0D0D1A1A1A2828283535354343435050505D5D5D6B6B6B787878868686939393A1A1A1AEAEAEBB
310
BBBBC9C9C9D6D6D6E4E4E4F1F1F1FFFFFF000000000000000000000000000000000000000000000000000000000000C11FEF66000002024944415478DAEDDA418EC3200C40D1AE394F7DFFBB20AEC07E02368454CA309B4623FB2355D37433F28B3186E495838F170000000000000000000000000000000000000000000000
310
00C0F3A3F41115A0C52EA5A4BF18547F007AF35337D813F803386297229A01A97D2FD10092AC19705CC502E8711F7F7A06CCCB4800D2E2CE9A01E77518809EFBF9CC806D0AB803B0393F33206FAA80BF0CD0FB3D33206F56427F009AF1670DB039110440D7BDCB2AD057C52000D6013701CB8076957A4F1C01A0476B02632F
310
D0BA42FDD53F80463E3F331BC6C73F408F525AE4C9F64149AF7EE988AB1F00DDF969CE9739B402E4DB6DA1378063BCED8EBF350FE43DE2F70ED057BE71AF6D2758AC0D2AB73B82EAAE068CEF5A09D6FA18A306F42F799C052CBF45A80149B3DDAADF887FCC819B75D0550D58AABFF544EB6A10A0115A23FE1829402394AF11
310
5F3320422B7C11987B824DFC0EB7C3B3062E5530CA76783E13CA1ABB8C1E301280EEFD6727686704A132607482F354345C06E4350372AC0CD06E68CD80B27932E2F054385D570109752A6C0262B18BE8794024803EE7656440DA3C15F0FB82C4390FC2BD20F1B12978FC9FF396180000000000000000000000000000000000
310
0000000000000000000000000000000000C013A3D6E515F0FA8DF7C1FF2B40DD0CA600000000000000000000000000000000000000000000007C63FC0024B3D06E11A766010000000049454E44AE426082
  0
ENDSEC
  0
EOF
